Ads

Wisdom of the World (Mother) Guitar Tab

Submitted: Jul 22, 2012 by Kabukibear

5
Average: 5 (4 votes)
Download | Listen
Game: Mother
Composer(s): Hirokazu Tanaka, Keiichi Suzuki
Style: Arrangement, Fingerstyle

AutoScroll: Slow | Medium | Fast
Wisdom of the World                               
~Mother~
Composed by: Hirokazu Tanaka, Keiichi Suzuki
Arranged by: Justin Lincoln

Drop D Tuning

     E  E  S S S S Q    Q       Q    S S S S H         
E||--------------------------|------------------------|
B||-----3--3-2-0---0---------|-------------0----------|
G||--------------2------2----|---------2-2---2--------|
D||--4-----4-------0----0----|-------4---0------------|
A||--2-----0-----------------|--0------------0--------|
D||----------------5----4----|--0--------5---0--------|


  E  E  S S S S Q    Q       Q    S S S S H         
--------------------------|------------------------|
-----3--3-2-0---0---------|-------------0----------|
--------------2------2----|---------2-2---2--------|
--4-----4-------0----0----|-------4---0------------|
--2-----0-----------------|--0------------0--------|
----------------5----4----|--0--------5---0--------|


  E  E  S S S S E  E  E  E     E  E  S S S S E  E  E  E   
----------------------------|----------------------0-----|
--------------0-2-----------|--------0-0-0-2-3-----------|
--------3-3-3---------------|-----0------0------0-----0--|
-----4------4---2-----4-----|--0-------------------------|
--1-----4----------1--4--1--|--------2-------1-----1-----|
----------------------------|----------------------------|


  Q    S S S S Q    Q       E.  S H.              Q    S S S S Q    Q     
-------2-2-2-3-5---------|------2-0------------|-------2-2-2-3-5---------|
-------------0-3----3----|--3-----2------------|-------------0-3----3----|
-------2-2-2---2---------|--4-----2------------|-------2-2-2---2---------|
--4-----------------4----|--0------------------|--4-----------------4----|
--0------------2---------|--------0------------|--0------------2---------|
--0----------------------|--5------------------|--0----------------------|


  E.  S H        E  E     H        Q    E  E     H.           E  S S  
------2-0--------0--3--|--2-------------0--2--|----------------------|
--3-----2--------2-----|--3-------------2--3--|--3------------L--2-3-|
--4-----2--------------|----------------------|--4------------L--2---|
--0--------------------|----------------------|----------------------|
--------0--------1-----|--2--------0----------|----------------------|
--5--------------------|----------------------|--5------------L------|


  Q    Q    Q    Q       Q    Q    Q    Q         Q      
----------------------|--0--------------------||-------||
--0----3----0---------|-------2---------------||-------||
----------------------|------------3---------*||-------||
--4--------------4----|-----------------4----*||--1----||
----------------------|-----------------------||--2----||
--4-------------------|--4--------------------||--4----||




Duration Legend
---------------
W - whole
H - half
Q - quarter
E - 8th
S - 16th
T - 32nd
X - 64th
. - note dotted
|-n-|  - n-tuplets


Tablature Legend
----------------
L - tied note
Login or Register to remove this ad.

2 comments on Wisdom of the World

Lovely song and fantastic

Lovely song and fantastic arrangement

It's always a good week when

It's always a good week when you get this many Kabukibear tabs