Ads

Roving Tank (Mother) Guitar Tab

Submitted: Apr 23, 2012 by Kabukibear (Last updated: Apr 23, 2012)

5
Average: 5 (1 vote)
Download | Listen
Game: Mother
Composer(s): Hirokazu Tanaka, Keiichi Suzuki
Style: Sweep picking, Tapping, Transcription

AutoScroll: Slow | Medium | Fast
Roving Tank                                   
~Mother~
Composed by: Keiichi Suzuki and Hirokazu Tanaka
Tabbed by: Justin Lincon

bpm=147

     W                   W                   W                 
E||-------------------|-------------------|-------------------|
B||-------------------|-------------------|-------------------|
G||-------------------|-------------------|-------------------|
D||-------------------|-------------------|-------------------|
A||-------------------|-------------------|-------------------|
E||-------------------|-------------------|-------------------|


  W                   S  S  S  S  S  S  S  S S  S  S  S  S  S  S  S  
-------------------|------------------------------------------------|
-------------------|------------------------------------------------|
-------------------|------------------------------------------------|
-------------------|------------------------------------------------|
-------------------|--9-10-10-10-10-10-10-10-9-10-10-10-10-10-10-10-|
-------------------|--9-10-10-10-10-10-10-10-9-10-10-10-10-10-10-10-|


  S  S  S  S  S  S  S  S E.   E   S S S  
----------------------------------------|
----------------------------------------|
----------------------------------------|
-------------------------8---10---L-8-8-|
--9-10-10-10-10-10-10-10-8---10---L-8-8-|
--9-10-10-10-10-10-10-10----------------|


  S  S  S  S  S  S  S  S S  S  S  S  S  S  S  S  
------------------------------------------------|
------------------------------------------------|
------------------------------------------------|
------------------------------------------------|
--9-10-10-10-10-10-10-10-9-10-10-10-10-10-10-10-|
--9-10-10-10-10-10-10-10-9-10-10-10-10-10-10-10-|


  S  S  S  S  S  S  S  S E.   E   S S S    S S S S S S S  S  H         
----------------------------------------|-----------------------------|
----------------------------------------|-----------------------------|
----------------------------------------|-----------------------------|
-------------------------8---10---L-8-8-|-----------------------------|
--9-10-10-10-10-10-10-10-8---10---L-8-8-|--8-8-8-8-8-8-8-11--L--------|
--9-10-10-10-10-10-10-10----------------|--8-8-8-8-8-8-8-11--L--------|


  S S S S S S S S H           S S S S S S S S  H         
---------------------------|----------------------------|
---------------------------|----------------------------|
---------------------------|----------------------------|
----------------8-L--------|----------------------------|
--8-8-8-8-8-8-8-8-L--------|--8-8-8-8-8-8-8-8-11--------|
--8-8-8-8-8-8-8------------|--8-8-8-8-8-8-8-8-11--------|


   E  E  E   E   E   E  E  E   
------------------------------|
------------------------------|
--10--9--8--------------------|
--10--9--8--12--11--10--9--8--|
------------12--11--10--9--8--|
------------------------------|


   T      T      T      T      T      T      T      T      T      T      T      T
   |---3--|   |---3--|  |---3--|   |---3--|  |---3--|   |---3--|  |---3--|   |---3--|
   S   S  S   S  S   S  S   S  S   S  S   S  S   S  S   S  S   S  S   S  S   S  S   S
--13p-10---------------13p-10---------------13p-10---------------13p-10--------------|
---------13p-10---------------13p-10---------------13p-10---------------13p-10-------|
-------------------------------------------------------------------------------------|
----------------10h-12---------------10h-12---------------10h-12---------------10h-12|
-------------------------------------------------------------------------------------|
-------------------------------------------------------------------------------------|


   T      T      T      T      T      T      T      T      T      T      T      T
   |---3--|   |---3--|  |---3--|   |---3--|  |---3--|   |---3--|  |---3--|   |---3--|
   S   S  S   S  S   S  S   S  S   S  S   S  S   S  S   S  S   S  S   S  S   S  S   S
--15p-10---------------15p-10---------------15p-10---------------15p-10--------------|
---------13p-10---------------13p-10---------------13p-10---------------13p-10-------|
-------------------------------------------------------------------------------------|
----------------10h-12---------------10h-12---------------10h-12---------------10h-12|
-------------------------------------------------------------------------------------|
-------------------------------------------------------------------------------------|


   T      T      T  T  T      T      T  T  T      T      T  T  T      T      T  T
   |---3--|   |--3--|  |---3--|   |--3--|  |---3--|   |--3--|  |---3--|   |--3--|
   S   S  S   S  S  S  S   S  S   S  S  S  S   S  S   S  S  S  S   S  S   S  S  S
--18p-15--------------18p-15--------------18p-15--------------18p-15-------------|
---------18p-15-18-20--------18p-15-18-20--------18p-15-18-20--------18p-15-18-20|
---------------------------------------------------------------------------------|
---------------------------------------------------------------------------------|
---------------------------------------------------------------------------------|
---------------------------------------------------------------------------------|


   T  T  T     T  T  T  T  T     T  T  T  T  T     T  T  T  T  T     T  T  
   |--3--|  |--3--|  |--3--|  |--3--|  |--3--|  |--3--|  |--3--|  |--3--|  
   S  S  S  S  S  S  S  S  S  S  S  S  S  S  S  S  S  S  S  S  S  S  S  S  
--20----------------20----------------20----------------20----------------|
-----20----------20----20----------20----20----------20----20----------20-|
--------22-21-22----------22-21-22----------22-21-22----------22-21-22----|
--------------------------------------------------------------------------|
--------------------------------------------------------------------------|
--------------------------------------------------------------------------|


   H          H             S  S  S  S  S  S  S  S  S  S  S  S  S  S  S  S  
--22~--------22~--------|--22-20----20-------------------------------------|
------------------------|--------22----22-20-22-20----20-------18----------|
------------------------|--------------------------22----22-19----19-------|
------------------------|--------------------------------------------22-19-|
------------------------|--------------------------------------------------|
------------------------|--------------------------------------------------|


                           |--3--|        |--3--|        
   S  S  S  S  S  S  S  S  S  S  S  S  S  S  S  S  S  S  
--------------------------------------------------------|
--------------------------------------------------------|
--------------------------------------------------------|
--15----15-17-18-17-15----17-18-17-15----17-18-17-15----|
-----17----------------17-------------17-------------17-|
--------------------------------------------------------|


               |--3--|        |--3--|  |--3--|  |--3--|  |--3--|  
   S  S  S  S  S  S  S  S  S  S  S  S  S  S  S  S  S  S  S  S  S  
-----------------------------------------------------------------|
-----------------------------------------------------17-18-19-20-|
-----------------------------------------17-18-19-20-------------|
--------------15-17-15-------17-18-19-20-------------------------|
--15----15-17----------17-15-------------------------------------|
-----17----------------------------------------------------------|


   T      T      T      T      T      T      T      T      T      T      T   T      T   
   |---3--|   |---3--|  |---3--|   |---3--|  |---3--|   |---3--|  |---3--|   |---3--|
   S   S  S   S  S   S  S   S  S   S  S   S  S   S  S   S  S   S  S   S  S   S  S   S
-------------------------------------------------------------------------------------
--22p-18-22p-18-22p-18-21p-17-21p-17-21p-17-22p-18-22p-18-22p-18-23p-19-23p-19-23p-19
-------------------------------------------------------------------------------------
-------------------------------------------------------------------------------------
-------------------------------------------------------------------------------------
-------------------------------------------------------------------------------------


   T      T      T      T      T      T      T      T      T      T      T   T      T   
   |---3--|   |---3--|  |---3--|   |---3--|  |---3--|   |---3--|  |---3--|   |---3--|
   S   S  S   S  S   S  S   S  S   S  S   S  S   S  S   S  S   S  S   S  S   S  S   S
-------------------------------------------------------------------------------------
--22p-18-22p-18-22p-18-21p-17-21p-17-21p-17-22p-18-22p-18-22p-18-23p-19-23p-19-23p-19
-------------------------------------------------------------------------------------
-------------------------------------------------------------------------------------
-------------------------------------------------------------------------------------
-------------------------------------------------------------------------------------


  |-3-| |-3-| |-3-| |-3-| |-3-| |-3-| |-3-| |-3-|  
  S S S S S S S S S S S S S S S S S S S S S S S S  
--0-----------2-----------4-----------6-----------|
----1-------1---3-------3---5-------5---7-------7-|
------2---2-------4---4-------6---6-------8---8---|
--------3-----------5-----------7-----------9-----|
--------------------------------------------------|
--------------------------------------------------|


  |--3-|  |--3-|  |--3--|  |--3--|  |--3--|  |--3--|  |--3--|  |--3--|  
  S S  S  S  S S  S  S  S  S  S  S  S  S  S  S  S  S  S  S  S  S  S  S  
--8--------------10----------------12----------------14----------------|
----9----------9----11----------11----13----------13----15----------15-|
------10----10---------12----12----------14----14----------16----16----|
---------11---------------13----------------15----------------17-------|
-----------------------------------------------------------------------|
-----------------------------------------------------------------------|


  S  S  S  S  S  S  S  S E.   E   S S S  
----------------------------------------|
----------------------------------------|
----------------------------------------|
-------------------------8---10---L-8-8-|
--9-10-10-10-10-10-10-10----------------|
----------------------------------------|


   S  S  S  S  S  S  S  S E.   E   S S S   x6
|-----------------------------------------|
|-----------------------------------------|
|*---------------------------------------*|
|*------------------------8---10---L-8-8-*|
|--9-10-10-10-10-10-10-10-8---10---L-8-8--|
|--9-10-10-10-10-10-10-10-----------------|



  S  S  S  S  S  S  S  S E.   E   S S S      W                 
-----------------------------------------||-------------------|
-----------------------------------------||-------------------|
----------------------------------------*||--0----------------|
-------------------------8---10---L-8-8-*||--0----------------|
--9-10-10-10-10-10-10-10-8---10---L-8-8--||-------------------|
--9-10-10-10-10-10-10-10-----------------||-------------------|


  W                  
-------------------||
-------------------||
--L----------------||
--L----------------||
-------------------||
-------------------||




Duration Legend
---------------
W - whole
H - half
Q - quarter
E - 8th
S - 16th
T - 32nd
X - 64th
. - note dotted
|-n-|  - n-tuplets


Tablature Legend
----------------
L - tied note
h - hammer on
p - pull off
~ - vibrato
W - wide vibrato
T - tapping
Login or Register to remove this ad.

4 comments on Roving Tank

Full disclosure, I don't play

Full disclosure, I don't play electric guitar...so while I wrote this out to take advantage of a lot of two hand tapping, those that have more experience with electrics feel free to correct and/or suggest alternate fingering and picking.

Holy crap, that's hard @[email protected];

Holy crap, that's hard @[email protected];

lol jesus I just listened to

lol jesus I just listened to the mp3 what in the holy fuck kabuki XD

XD Yeah it was really just

XD Yeah it was really just for fun. Listening to the tracks from the Mother albums for my other project I stumbled upon that one and knew I had to do it. If it gets put in the wastebin of gametabs due to it's difficulty, I'm ok with that. I only spent like an hour transcribing the guitar part so it's not a huge loss. I just couldn't stop singing it around the house all day and knew I WOULD not be able to until I got it out. :P