Ads

Pollyanna (Mother) Guitar Tab

Submitted: Jul 11, 2010 by FireM

5
Average: 5 (2 votes)
Download | Listen
Game: Mother
Composer(s): Hirokazu Tanaka, Keiichi Suzuki
Style: Transcription

AutoScroll: Slow | Medium | Fast
Pollyanna
Mother
Composed by Hirokazu Tanaka
Tabbed by FireM
07/05/10

e-----7-10-9-10-10----7---7-10-9-10-10-------
B---8--------------10---8--------------------
G--------------------------------------------
D--------------------------------------------
A--------------------------------------------
E--------------------------------------------

e-----------0---------------2----------------
B-------------2-3---0-0-3-3---3--------------
G-------2-2---------------------2-2-0-0------
D---4-4--------------------------------------
A--------------------------------------------
E--------------------------------------------

e-----------0---------------2----------------
B-------------2-3---0-0-3-3---3--------------
G-------2-2---------------------2-2-0-0------
D---4-4--------------------------------------
A--------------------------------------------
E--------------------------------------------
HIGH:
e-------------------7------------------------
B-------------0-3-7----3-2-0-2-3-2-0-2-3-----
G--------------------------------------------
D---4-2-0-2-4--------------------------------
A--------------------------------------------
E--------------------------------------------
LOW:
e--------------------------------------------
B-------------------0--3-2-0-2-3-2-0-2-3-----
G--------------------------------------------
D---4-2-0-2-4---0-4--------------------------
A-------------2------------------------------
E--------------------------------------------

e---5-5-5-5------------------12-10-9-10------
B-----------7-5-----10-10-10-----------------
G---------------7----------------------------
D--------------------------------------------
A--------------------------------------------
E--------------------------------------------

e---7-9-10-9-7-9-10-9-7-9-10-9-7-9-10--------
B--------------------------------------------
G--------------------------------------------
D--------------------------------------------
A--------------------------------------------
E--------------------------------------------

e---7-9-10-9-7-9-10-9-7-9-10-10-10-14-10-10--
B--------------------------------------------
G--------------------------------------------
D--------------------------------------------
A--------------------------------------------
E--------------------------------------------
Login or Register to remove this ad.