Ads

Paradox Battle (Megalovania) (Mother: Cognitive Dissonance) Guitar Tab

Submitted: May 05, 2019 by Kirill Chernov (Last updated: May 15, 2019)

5
Average: 5 (2 votes)
Download | No audio :(
Game: Mother: Cognitive Dissonance
Style: Arrangement

Click here for a video example.

AutoScroll: Slow | Medium | Fast
E|-------5-----------------------------|-------5-----------------------------|-------5-----------------------------|
B|-----------5----4---3---1------1--3--|-----------5----4---3---1------1--3--|-----------5----4---3---1------1--3--|
G|-2--2-----------------------2--------|-0--0-----------------------2--------|----------------------------2--------|
D|-------------------------------------|-------------------------------------|-4--4--------------------------------|
A|-------------------------------------|-------------------------------------|-------------------------------------|
E|-------------------------------------|-------------------------------------|-------------------------------------|


E|-------5-----------------------------|-------5-----------------------------|-------5-----------------------------|
B|-----------5----4---3---1------1--3--|-----------5----4---3---1------1--3--|-----------5----4---3---1------1--3--|
G|----------------------------2--------|----2-----------------------2--------|----0-----------------------2--------|
D|-3--3--------------------------------|-------------------------------------|-------------------------------------|
A|-------------------------------------|-0-----------------------------------|-------------------------------------|
E|-------------------------------------|-------------------------------------|-3-----------------------------------|


E|-------5-----------------------------|-------5-----------------------------|-------5-----------------------------|
B|-----------5----4---3---1------1--3--|-----------5----4---3---1------1--3--|-----------5----4---3---1------1--3--|
G|----------------------------2--------|----------------------------2--------|----2-----------------------2--------|
D|----4--------------------------------|----3--------------------------------|-------------------------------------|
A|-------------------------------------|-------------------------------------|-0---------0----0-------0------0-----|
E|-2-----------------------------------|-1--------------3--------------------|-------------------------------------|


E|-------5-----------------------------|-------5-----------------------------|-------5-----------------------------|
B|-----------5----4---3---1------1--3--|-----------5----4---3---1------1--3--|-----------5----4---3---1------1--3--|
G|----0-----------------------2--------|----------------------------2--------|----------------------------2--------|
D|-------------------------------------|----4--------------------------------|----3--------------------------------|
A|-------------------------------------|-------------------------------------|-------------------------------------|
E|-3---------3----3-------3------3-----|-2---------2----2-------2------2-----|-1---------1----3-------3------3-----|


E|-----------------------------------|-----------------------------------------|---------------------------3-------|
B|-1---1--1------1---1---------------|-1---1--1------3---4---3--1-----1--3-----|-1---1--1------3---4---5-------5---|
G|-----------------------2---2-------|-----------------------------2-----------|-----------------------------------|
D|-----------------------------------|-----------------------------------------|-----------------------------------|
A|-0---------0-------0-------0---0---|-----------------------------------------|-----------------------------------|
E|-----------------------------------|-3---------3---3----------3-----------3--|-2---------2-------2-------2-------|


E|-5---5---5-----5--3--------|-------------------------------------|------------------------5----------|
B|------------5--------------|-5---5--5------5---5--3---3----------|-5---5---5--5---3---5-------5--3---|
G|---------------------------|-5---5--5------5---5--2---2----------|-5---5---5--5---2---5---2----------|
D|---------------------------|-------------------------------------|-----------------------------------|
A|---------------------------|-0---------0-------0------0---0------|-----------------------------------|
E|-1-------1--------3-----3--|-------------------------------------|-3-------3------3-------3------3---|


E|-5---------------3---------------|----------------3------------|-----------------------------------------|
B|-----5---3---1-------3---1---0---|--------0---1----------------|-----------------1-----1--3--4--3--1-----|
G|---------------------------------|-----2-----------------------|-----------------2--2--2--2--------2--2--|
D|---------------------------------|-3---------------------------|--------------------3-----------------3--|
A|---------------------------------|-----------------------------|-----------------------------------------|
E|-2-------2-------2-------2-------|-1------1-------3----3-------|-1---1---1-------------------------------|


E|------------------------------------|-3---0-------------------------0---3---|-4-----------------------------|
B|-4-3----1---3-----------4-------5---|--------4--3--1-----0--1---3-----------|-----4---4--3--1--3------------|
G|-5-4-2--2---4-----------------------|-----------------2---------------------|-------------------------------|
D|------------------------------------|---------------------------------------|---------6---------------------|
A|------------------------------------|-0---------0--------0------------------|------------------1----1----1--|
E|-3----------3---3---3-------3-------|---------------------------------------|-4-----------------------------|


E|-------------8---7----5----|-7----8----10---7----|-12----12-11-10-9-8-7-6-5---4--||---------------------------------------|
B|---------------------------|-----------8---------|-10-------------------------4--||---------------------------------------|
G|-2---4---5---9---7----5----|-7----9---------7----|-------------------------------||*--------2-----------------------------|
D|---------------------------|-5-------------------|-------------------------------||*------------2----1---0-------------0--|
A|-3---5---7-----------------|---------------------|-------------------------------||---0--0-------------------3---0--3-----|
E|-1-------------------------|---------------------|----------------------------4--||---------------------------------------|


E|-------------------------------------|-------------------------------------|--------------------------------------||(x4)
B|-------------------------------------|-------------------------------------|--------------------------------------||
G|-------2-----------------------------|-------2-----------------------------|-------2-----------------------------*||
D|-----------2----1---0-------------0--|-----------2----1---0-------------0--|-----------2----1---0-------------0--*||
A|------------------------3---0--3-----|------------------------3---0--3-----|------------------------3---0--3------||
E|-3--3--------------------------------|-2--2--------------------------------|-1--1---------------------------------||


Cognitive Dissonance - Megalovania is five semitones lower than original, so i just transposed that and got this version.
Login or Register to remove this ad.

1 comment on Paradox Battle (Megalovania)

Original

Original song:
https://youtu.be/CeRQEgv2RJM