Ads

Kaze ga Soyogu Basho (Monster Rancher (Anime)) Guitar Tab

Submitted: Jul 29, 2016 by ironpencil

0
Download | Listen
Game: Monster Rancher (Anime)
Composer(s): BMF
Style: Arrangement, Fingerstyle, Natural harmonics

This song is also called Frei wie der Wind

AutoScroll: Slow | Medium | Fast
Series: Monster Rancher
Title: Kaze ga Soyogu Basho
Artist: Miho Komatsu
Tabber:  Ironpencil
Date of Creation: 18.07.2016


Capo 1:
                                                                                
E |--------------------------------------|----------------------------|
B |--------------------------------------|--------0-------------------|
G |-----0---2----0---2--4---4---2----0---|-----0--0--0--2-----4--0L---|
D |-----0---0----0------0---0---0----0---|--------0-------------------|
A |--------------------------------------|----------------------------|
E |--3------x-------------------x--------|--3-----x-----2-----x--0----|

                                                        
|----------------------------|-------|-------------------------|
|----------------------------|-------|-------------------------|
|--0--0----------------------|-------|-----------0h-2h-4h-5----|
|--------2--4-----4s-5--2L---|--2----|--0h-2h-4----------------|
|-----------------------0L---|--0----|--0----------------------|
|--------0-----------x-------|-------|-------------------------|

                                                          
|----------------------------|----------------------------|
|--0--------0----------------|----------------------------|
|-----------------2--0--4----|--2-------------------------|
|----------------------------|-----------2-----2-----4----|
|----------------------------|--5--------5----------------|
|--3-----x--3--------x-------|--------x-----------x-------|

                                                          
|----------------------------|----------------------------|
|----------------------------|----------------------------|
|--0--------0-----0--2--0----|--2--4----------------------|
|--2-------------------------|----------------------------|
|--3--------3----------------|--------------2--0--2-------|
|--------x-----------x-------|--3L-3--x--3--------x--3----|

                                                          
|----------------------------|----------------------------|
|----------------------------|----------------------------|
|--4--------4-----2--0--4----|--2-------------------------|
|----------------------------|-----------2-----2-----4----|
|----------------------------|--5--------5----------------|
|--3-----x--3--------x-------|--------x-----------x-------|

                                                          
|----------------------------|----------------------------|
|--------------1--0----------|----------------------------|
|--0--------0-----------2L---|--2--0--0-------------------|
|--2--------------------0L---|--0--0--0-------------------|
|--3--------3----------------|-----------------0--2--3----|
|--------x-----------x-------|--------x-----3-----x-------|

                                                          
|----------------------------|----------------------------|
|--------3--3--3--1--0-------|----------------------------|
|--------4--4-----------2----|--2--4--2--0----------------|
|-----4----------------------|-----------0----------------|
|--2-------------------------|----------------------------|
|--------x-----------x-------|--0-----x-----------x-------|

                                                          
|----------------------------|----------------------------|
|-----1--1--1--1-------------|----------------------------|
|-----2--2--2--2--2--0-------|--------0--------0--2--4----|
|-----------------------4----|--4--4-----4----------------|
|--0-------------------------|--5--------5----------------|
|--------x-----------x-------|--------x-----------x-------|

                                                          
|-----------------------0L---|--0--2-----3s----0--0--2----|
|-----3--3--3--3--0--3--0L---|--0--0-----0-----0--0--0----|
|-----4--4--4--4-------------|----------------------------|
|----------------------------|----------------------------|
|--2-----------2-------------|----------------------------|
|--------x-----------x-------|--0-----x--0--------x-------|

                             
|--3--------0--0--2-----3L---|
|--1--------1--1--1-----1L---|
|----------------------------|
|----------------------------|
|--0-----------0-------------|
|--------x-----------x-------|

                                                     
|--3-----2-----2-------------------------------------|
|--1-----1-----1-------------------------------------|
|-----------------------------------0----------------|
|--0-----0L----0-----------------2--------2----------|
|--------------------------3-----------------3-------|
|----------------------------------------------------|

                                                     
|--------------------------0-----------3-------------|
|-----------------3s-6-------------------------------|
|-----------4----------------------------------------|
|--------4-------------------------------------------|
|--2-------------------------------------------------|
|----------------------------------------------------|

                                                     
|--3--------2--------3-----5--------3--------3-------|
|----------------------------------------------------|
|--------------0-----------------------0-------------|
|--------2-----------------------2-------------------|
|--3-----------------------3-------------------------|
|----------------------------------------------------|

                                                     
|--3--------2--------3-----5--------3--------3-------|
|----------------------------------------------------|
|--------------2-----------------------2-------------|
|--------2-----------------------2-------------------|
|--3-------------------------------------------------|
|----------------------------------------------------|

                                                     
|--2--------3--------3-----------------------3-------|
|--3--------0--------0-------------------------------|
|----------------------------------------------------|
|----------------------------------------------------|
|----------------------------------------------------|
|--3-----------x-----3L----------------------3-------|

                                                     
|--3--------2--------3-----5--------3--------3-------|
|----------------------------------------------------|
|--------------0-----------------------0-------------|
|--------2-----------------------2-------------------|
|--3-----------------------3-------------------------|
|----------------------------------------------------|

                                                     
|--3--------2--------3-----5--------3--------3-------|
|----------------------------------------------------|
|--------------2-----------------------2-------------|
|--------2-----------------------2-------------------|
|--3-----------------------3-------------------------|
|----------------------------------------------------|

                                                          
|--2--2--2--0-----2--0-------|-----------7s----2--2-------|
|--------0-----------0-------|--3-----3--0-----3--3-------|
|----------------------------|--0-----0-----------2-------|
|----------------------------|--0-----0-----------0-------|
|--2-----2--0--------0-------|--------x-------------------|
|--------x-------------------|--3-----3-------------------|

                                                     
|--3--------2--------3-----5--------3--------3-------|
|----------------------------------------------------|
|--------------0-----------------------0-------------|
|--------2-----------------------2-------------------|
|--3-----------------------3-------------------------|
|----------------------------------------------------|

                                                     
|--3--------2--------3-----5--------3--------3-------|
|----------------------------------------------------|
|--------------2-----------------------2-------------|
|--------2-----------------------2-------------------|
|--3-----------------------3-------------------------|
|----------------------------------------------------|

                                                     
|--3--------2--------3-----5--------3--------3-------|
|----------------------------------------------------|
|--------------2-----------------------2-------------|
|--------2-----------------------2-------------------|
|--2-----------------------2-------------------------|
|----------------------------------------------------|

                           ^                          
|--2--------3----------------------------------------|
|--------------------3-----3-----------------3-------|
|-----------4--------------0-------------------------|
|--------2-------------------------------------------|
|--2-------------------------------------------------|
|--------------------------0-------------------------|

                             
|-----2--3--------2--3--5----|
|--5--------3----------------|
|----------------------------|
|-----------0----------------|
|--3-------------------------|
|----------------------------|

                                                     
|--7-------------------------------------------------|
|-----------7--------10----10-------8L-------8-------|
|----------------------------------------------------|
|----------------------------------------------------|
|--------------------------7-------------------------|
|--7-------------------------------------------------|

                                                                      
|--8--------7----------------------------------------|----------------|
|--------------------10----8--------7--------8L------|--8--------3----|
|--------------------------------------------0L------|--0-------------|
|----------------------------------------------------|----------------|
|----------------------------------------------------|----------------|
|--8-----------------------10------------------------|----------------|

   ^        ^                 
|-----2--3--------2--3--5----|
|--0--------3----------------|
|--0--------2L----------2----|
|--2L-------0L----------0----|
|--3L------------------------|
|----------------------------|

   ^                                                  
|--7-------------------------------------------------|
|--7-----------7-----10----10-------8L-------8-------|
|----------------------------------------------------|
|----------------------------------------------------|
|--------------------------7-------------------------|
|--7-------------------------------------------------|

   ^                                                       ^
|--8--------7----------------------------------------|----------|-------||
|--8L-------8--------10----8-----------10------------|----------|-------||
|--8-----------------------9-----------11L-----------|--11-12L--|--12---||
|--------------------------0-------------------------|-----12L--|--12---||
|----------------------------------------------------|----------|-------||
|--8L-------8--------------10------------------------|----------|-------||

Legend
L - tied note
x - dead note
h - hammer on/pull off
b - bend
s - slide
~ - vibrato
g - ghost note
> - accentuated note
t - trill
M - palm mute
. - staccato
P - popping (bass)
S - slapping (bass)
+ - tapping
W - wide vibrato
< - fade in
w - whammy bar
= - tremolo picking
v - brush up
^ - brush down
V - pick stroke up
n - pick stroke down
Login or Register to remove this ad.