Ads

Pokke Village (Monster Hunter Freedom Unite) Guitar Tab

Submitted: Oct 21, 2016 by MechaKrauser

5
Average: 5 (6 votes)
Download | Listen
Game: Monster Hunter Freedom Unite
Composer(s): Yuko Komiyama, Akihiko Narita, Tadayoshi Makino
Style: Arrangement, Fingerstyle

AutoScroll: Slow | Medium | Fast
Pokke Village
from Monster Hunter Freedom Unite
music by Akihiko Narita (Capcom)
tab by MechaKrauser

Drop D tuning, capo on 1
4/4 time, 100bpm


      E  E  E  E  H           E  E  E  E  H           E  E  E  E  H         
E||------------------------|-----------------------|-----------------------|
B||------------------------|-----------------------|-----------------------|
G||*-----------------------|-----------0--L--------|-----------2--L--------|
D||*--------0--4--L--------|--------0--------------|--------2--------------|
A||------0-----------------|-----1-----------------|-----4-----------------|
D||---0--------------------|--0--------------------|--0--------------------|


  E  E  E  E  E  E  E  E     E  E  E  E  H           E  E  E  E  H         
--------------------------|-----------------------|-----------------------|
--------------------------|-----------------------|-----------------------|
-----------0--------------|-----------------------|-----------0--L--------|
--------0-----4--0-----0--|--------0--4--L--------|--------0--------------|
-----2--------------2-----|-----0-----------------|-----1-----------------|
--0-----------------------|--0--------------------|--0--------------------|


  E  E  E  E  H           E  E  E  E  E  E  E  E     E  E  E  E  E  E  E  E   
-----------------------|--------------------------|-----------------------5--|
-----------------------|--------------------------|--3--------------2--3-----|
-----------2--L--------|-----------0--------2-----|--------------------------|
--------2--------------|--------0-----4--0-----0--|--------0--4--L-----------|
-----4-----------------|-----2--------------2-----|-----0--------------------|
--0--------------------|--0-----------------------|--0-----------------------|


  T  T  S E  E  E  Q    Q       E  E  E  E  Q    E  E     E  E  E  E  E  E  E  E   
--3h-5p-3----------0----3----|--2----------------------|--------------------------|
-----------------------------|-------------------5--3--|--------------------2-----|
----------------0------------|-----------2--L----------|--2--------0--------------|
-------------0---------------|--------2----------------|--------0-----4--0-----0--|
----------1------------------|-----4-------------------|-----2--------------2-----|
--0--------------------------|--0----------------------|--0-----------------------|


                                                                           |--3--|  
  E  E  E  E  E  E  E  E     E  E  E  E  Q    E  E     E  E  E  E  Q    E  S  S  S  
--------------------------|--0----------------------|--2-------------------2h-3p-2-|
--3--------------0--2--3--|----------------------3--|------------------------------|
--------------------------|-------------------6-----|-----------2--L----L----------|
-----------0--L-----------|-------------------------|-----0--2---------------------|
-----2--4-----------------|--------9--7--L----------|--0---------------------------|
--4-----------------------|--6--9-------------------|------------------------------|


  E  E  E  E  E  E  E  E     E  E  E  E  Q    Q       E  E  E  E  E  E  E  E   
--0-----------------------|------------------------|--0--L-----------------6--|
--------------------------|--0-----------2----3----|--------2-----------2-----|
-----------0-----------2--|-----------0------------|-----------3--L-----3--0--|
--------------------------|--------0---------------|--------2--------2--------|
--0-----7-----7--4--0--4--|-----2------------------|-----1--------------------|
-----6--------------------|--5---------------------|--5-----------------------|


  E  E  E  E  Q    Q       E  E  E  E  Q    E  E     E  E  E  E  E  E  E  E   
--5----------------2----|-------------------------|--5--------------------7--|
------------------------|--3----------------2--3--|-----------------2--3-----|
-----------2--L---------|-----------1--L----------|-----------2--L-----------|
--------2---------------|--------0----------------|--------2-----------------|
-----4------------------|-----2-------------------|-----2--------------------|
--4---------------------|--3----------------------|--2-----------------------|


                                                                   ^          
                                              |--3--|              .          
  E  E  E  E  H           E  E  E  E  Q    E  S  S  S    Q    Q    Q    Q     
--5--L-----------------|------------------------------|----------------------|
--------------8--------|--2-------------------2h-3p-2-|--3-------------------|
-----------0-----------|------------------------------|------------5----5----|
-----------------------|--------0--4--L----L----------|--4---------4---------|
--0-----7--------------|-----0------------------------|------------3---------|
-----6-----------------|--0---------------------------|------------4---------|


                           ^       v                                     
  E  E  E  E  Q    Q       Q    E  E  H           E  E  E  E  Q    Q     
--------2-----0---------|--2----L--0--L--------|-------------------2----|
-----------0-------0----|----------------------|--------5-----3---------|
--------0---------------|----------------------|-----------2------------|
-----0------------------|--4----L--2--L--------|-----0--2---------------|
------------------------|----------------------|------------------------|
--5---------------------|--5----L--------------|--4---------------------|


  E  E  E  E  Q    E  E     E  E  E  E  Q    Q       E  E  E  E  E  E  E  E   
-------------------------|------------------------|--------------------------|
--2-------------------2--|--------3-----2---------|--3--------2--L--------2--|
--------2--4--L----4-----|-----------0-------0----|--------0--2--L--4--L-----|
-----4-------------------|--------2---------------|-----2--------------------|
--2--------2--L----------|-----2------------------|--0-----------------------|
-------------------------|--2---------------------|--------------------------|

                                      ^
                          ^           .                                   
  E  E  E  E  H           E  E  E  E  Q    Q       E  E  E  E  Q    Q     
-----------------------|------------------------|--------------0---------|
--0--------------------|--3---------------------|--------7---------------|
-----------2--L--------|--------------5----5----|-----------4-------4----|
--------0--------------|--4--------4--4---------|-----0--6---------------|
-----0-----------------|--5-----5-----3---------|------------------------|
--0--------0--L--------|-----0------------------|--6---------------------|


  ^       v                                       ^       v                
  Q    E  E  H           E  E  E  E  Q    Q       Q    E  E  E  E  S S E   
----------0--L--------|-------------------5----|--------------------------|
--7----L--------------|--------5-----3---------|--2----L-------------2-L--|
----------------------|-----------2------------|----------4--L--4--L------|
--4----L--------------|-----0--2---------------|----------4--L------------|
----------7--L--------|------------------------|--2----L------------------|
--6----L--------------|--4---------------------|--------------------------|


  E  E  E  E  E  E  E  E     T  T  S E  E  E  Q    E.  T  T    E  E  E  E  H         
-----------------------0--|--5h-7p-5---------------5--------|--0--------------------|
--3--------------2--3-----|----------------------------8p-7-|-----------------------|
-----------0--L-----------|---------------------------------|-----------------------|
--------2-----------------|---------------------------------|-----------7--L--------|
-----2--------------------|-------------5--7--L-------------|--0-----7--------------|
--2-----------------------|--5-------8----------------------|-----6-----------------|


  ^                                                                                   
  E  E  E  E  E  E  E  E     E  E  E  E  E  E  E  E     T  T  S E  E  E  E  E  E  E   
--0--------------------5--|-----------------------7--|--5h-7p-5-------------------9--|
--------------------------|-----------0--L-----------|-------------8--7--L--5--7-----|
--7--------7-----6--7-----|--------0--------6--7-----|----------------7--L-----------|
--7-----------------------|-----0--------------------|-------------7-----------------|
--------------------------|--------------------------|--0-------7--------------------|
--------------------------|--5-----------------------|-------------------------------|


   E  E   E   E  E  E   E   E         E.   S E   E  E  E  E  E     E  E  E  E  E  E  E  E   
---------------------------12--|--12g14---12----10-----------7--|--5--------------------7--|
--10---------------------------|--------------------------------|-----------0--L-----------|
--------------------9--11------|-----------------------6--7-----|--------0--------6--7-----|
-------------11--L-------------|-------------9--12--------------|-----0--------------------|
------9--12--------------------|--------------------------------|--------------------------|
---9---------------------------|------9-------------------------|--5-----------------------|


  E  E  E  E  E  E  E  E     E  E    E  E  E  E  E  E     E  E  E  E  E  E  E  E   
--5--------5--L--3--2-----|-------------0--L--5--3--2--|-----------------------7--|
-----------------------5--|--2-----2g3--2--L-----------|-----------2--3-----3-----|
--------------------------|----------4-----------------|--------4-----4-----------|
--------4--5--L-----------|-----4----------------------|-----4-----------4--------|
-----2--------------------|--2-------------------------|--2-----------2-----------|
--2-----------------------|----------------------------|--------------------------|


  E  E  E  E  E  E  E  E      E  E  E  E  E  E  E  E      E  E   E  E   E  E   E   E   
--5--------------------7--|------------------------9--|---------------------------12--|
-----------0--L-----------|--10-----8--7--L-----7-----|--10-------------------10------|
--------0--------6--7-----|------------6--L--9--------|-------------9--11--9----------|
-----0--------------------|---------7-----------------|-------------------------------|
--------------------------|------7--------------------|------9--12--------------------|
--5-----------------------|---7-----------------------|---9---------------------------|


      E.   S E   E  E  E  E  E     E  E  E  E  E  E  E  E   
--12g14---12----10-----------7--|--5--------------------7--|
--------------------------------|-----------0--L-----------|
-----------------------6--7-----|--------0--------6--7-----|
-------------9--12--------------|-----0--------------------|
--------------------------------|--------------------------|
------9-------------------------|--5-----------------------|


                                                               ^                   
  E  E  E  E  E   T  T  T  T E  E     E  E  E  E  Q    Q       W                   
--5--------5--Lh--3h-5p-3h-5-2--0--|-------------------0----|--------------------||
-----------------------------------|--2---------------------|--3-----------------||
-----------------------------------|------------------------|--2----------------*||
--------4--5--L--------------------|--------0--4--L---------|--0----------------*||
-----2-----------------------------|-----0------------------|--------------------||
--2--------------------------------|--0---------------------|--0-----------------||




Duration Legend
---------------
W - whole
H - half
Q - quarter
E - 8th
S - 16th
T - 32nd
X - 64th
. - note dotted
|-n-|  - n-tuplets


Tablature Legend
----------------
L - tied note
x - dead note
g - grace note
(n) - ghost note
> - accentuded note
NH - natural harmonic
AH - artificial harmonic
TH - tapped harmonic
SH - semi harmonic
PH - pitch harmonic
h - hammer on
p - pull off
b - bend
br - bendRelease
pb - preBend
pbr - preBendRelease
brb - bendReleaseBend
\n/ - tremolo bar dip
\n - tremolo bar dive
-/n - tremolo bar Release up
/n\ - tremolo bar inverted dip
/n - tremolo bar return
-\n - tremolo bar Release down
S - shift slide
s - legato slide
/ -  slide into from below or out of upwards
\ -  slide into from above or out of downwards
~ - vibrato
W - wide vibrato
tr - trill
TP - tremolo picking
T - tapping
S - slap
P - pop
< - fade in
^ - brush up
v - brush down
Login or Register to remove this ad.

7 comments on Pokke Village

Thank you so much for this

Thank you so much for this

Omg Thanks!!I did not think

5

Omg Thanks!!I did not think my request for Bherna village would get that much attention, but this is just as fantastic!

Omg Thanks!!I did not think

5

Omg Thanks!!I did not think my request for Bherna village would get that much attention, but this is just as fantastic!

This is awesome! Favorited!

This is awesome! Favorited!

Very nice tab

5

Very nice tab

Thanks!

Cool, it looks like it's my turn to be Mr. Popular :3
Thanks everyone and enjoy the tab!

This is nostalgic. Thanks a

5

This is nostalgic. Thanks a lot!