Ads

Lao Shan Lung Finale (Monster Hunter Freedom Unite) Guitar Tab

Submitted: Mar 18, 2017 by GomiNoUmi (Last updated: May 07, 2017)

5
Average: 5 (1 vote)
Download | Listen
Game: Monster Hunter Freedom Unite
Composer(s): Yuko Komiyama, Akihiko Narita, Tadayoshi Makino
Style: Arrangement, Fingerstyle

AutoScroll: Slow | Medium | Fast
Title: Lao Shan Lung Finale
Composers: Yuko Komiyama, Akihiko Narita, Tadayoshi Makino
Game: Monster Hunter Freedom Unite
Song: https://www.youtube.com/watch?v=rKyzN3jNw8w
Arrangement by: GomiNoUmi
Made: 10.3.2017

Capo on 6th fret 
Rhythm (mostly) 4/4

This was kinda hard to tab out because the rhythm isn't that straightforward. Should be pretty simple if you listen to the tune carefully though.


A#|--------|-------------------------------------------------------------------------|
 F|--------|-------------------------------------------------------------------------|
C#|--------|-------------------------------------------------------------------------|
G#|--------|-------------------------------------------------------------------------|
D#|--------|-2--------2--2-----2--------2--------------2-----------2-----2-----2-----|
A#|--------|-0--------0--0-----0--------0--------------0-----------0-----0-----0-----|


A#|-------------------------------------------------------------------------|-------------------------------------------------------------------------|
 F|-------------------------------------------------------------------------|-5-----------------------------------------------------------------------|
C#|-------------------------------------------------------------------------|-------------------------------------------------------------------------|
G#|-------------------------------------------------------------------------|-------------------------------------------------------------------------|
D#|-2--------2--2-----2--------2--------------2-----------2-----2-----2-----|-2--------2--2-----2--------2--------------2-----------2-----2-----2-----|
A#|-0--------0--0-----0--------0--------------0-----------0-----0-----0-----|-1--------1--1-----1--------1--------------1-----------1-----1-----1-----|


A#|-------------------------------------------------------------------------|-------------------------------------------------------------------------|
 F|-------------------------------------------------------------------------|-------------------------------------------------------------------------|
C#|-------------------------------------------------------------------------|-4--------4--4-----4--------4--------------4-----------4-----4-----4-----|
G#|-------------------------------------------------------------------------|-------------------------------------------------------------------------|
D#|-2--------2--2-----2--------2--------------2-----------2-----2-----2-----|-2--------2--2-----2--------2--------------2-----------2-----2-----2-----|
A#|-1--------1--1-----1--------1--------------1-----------1-----1-----1-----|-0--------0--0-----0--------0--------------0-----------0-----0-----0-----|


A#|-------------------------------------------------------------------------|-5--------5--5-----5--------5--------------5-----------5-----5-----5-----|
 F|-5--------5--5-----5--------5--------------5-----------5-----5-----5-----|-5--------5--5-----5--------5--------------5-----------5-----5-----5-----|
C#|-4--------4--4-----4--------4--------------4-----------4-----4-----4-----|-4--------4--4-----4--------4--------------4-----------4-----4-----4-----|
G#|-------------------------------------------------------------------------|-------------------------------------------------------------------------|
D#|-2--------2--2-----2--------2--------------2-----------2-----2-----2-----|-2--------2--2-----2--------2--------------2-----------2-----2-----2-----|
A#|-0--------0--0-----0--------0--------------0-----------0-----0-----0-----|-0--------0--0-----0--------0--------------0-----------0-----0-----0-----|


A#|-------------------------------------------------------|------------------------------------------------------------------|
 F|----------------0--------------------------------0-----|---------------5-----------------3-----1-----0--------------------|
C#|-2--------2--------------------------------2-----------|-2-------------2--------------------------------------------------|
G#|-------2-----------------2-----2-----2-----------------|-------2----------------------------------------------------------|
D#|-------------------------0-----0-----------------------|-------2-------3-----3-----3-------------------------2------------|
A#|-------------------------------------------------0-----|-------0-------1-----1-----1-----------------3-------3------------|


A#|--------------------------------------------------------------------------|-------------------------------------------------------------------------|
 F|---------------------------0-----1--------------0-----------0-------------|-------------------------------------------------------------------------|
C#|-0-------------------2-----------------2--------------2-------------------|-------0-----------------------------2-----------2-----------2-----------|
G#|---------------------------------------3----------------------------------|----------------------------2--------2-----------2-----------2-----------|
D#|-2--------2----------------------------3-----------------------------2----|-------2-----------2-----------------0-----------0-----------0-----------|
A#|-3--------3----------------------------1--------------------3--------3----|-------3-----------3-----------------------------------------------------|


A#|-------------------------------------|-------------------------------------------------------|
 F|-------------------------------------|----------------0--------------------------------0-----|
C#|-------------------------------------|-2--------2--------------------------------2-----------|
G#|-------------------------------------|-------2-----------------2-----2-----2-----------------|
D#|----2--------------2-----2-----2-----|-0-----------------------0-----0-----------------------|
A#|----0--------------0-----0-----0-----|-------------------------------------------------0-----|


A#|---------------5-----------------3-----1---------------------------|---------------------------0-----1--------------0-----1-----3-------------|
 F|---------------------------------------------5---------------------|-1-------------------3--------------------------------------1-------------|
C#|-2-------------2-----------------------------0---------------------|-0----------------------------------------------------------0-------------|
G#|-------2-----------------------------------------------------------|---------------------3-----------3--------------------------2-------------|
D#|-------2-------3-----3-----3---------------------------------------|---------------------1-----------1--------------------------3-------------|
A#|-------0-------1-----1-----1-----------------3-------------3-------|-3--------3---------------------------------------------------------------|


A#|-------8------------------------------------------------------|-------------------------------------|
 F|-------------------------8------8--8------8--8------8--8------|----7--7-----------7-----7-----7-----|
C#|-------------------------7------7--7------7--7------7--7------|----7--7-----------7-----7-----7-----|
G#|-------------------------7------7--7------7--7------7--7------|----7--7-----------7-----7-----7-----|
D#|-------------------------5------5--5------5--5------5--5------|----5--5-----------5-----5-----5-----|
A#|--------------------------------------------------------------|-------------------------------------|


A#|-------------------------------------------------|-------------------------------------------------|
 F|-------------------------------------------------|-------------------------------------------------|
C#|-2-----------3-----------------------3---2-------|-2-------0---0-----------------------0---2---3---|
G#|-1-------------------------------------------3---|-------------------------------------------------|
D#|-1-----------------------1-----------------------|-1-----------------------1-----------------------|
A#|-------------------------------------------------|-------------------------------------------------|


A#|-------------------------------------------------|-------------------------------------------------|
 F|-------------------------------------------------|-----------------------------------------1---2---|
C#|-5-----------6-----------------------6---5-------|-5-------3---3-----------------------3-----------|
G#|-4-------------------------------------------6---|-------------------------------------------------|
D#|-4-----------------------4-----------------------|-4-----------------------------------------------|
A#|-------------------------------------------------|-2-----------------------2-----------------------|


A#|-------------------------------------------------|-------------------------------------------------|
 F|-4-----------5-----------------------5---4-------|-4-------2---2-----------------------2---4---5---|
C#|-2-------------------------------------------4---|-2-----------------------------------------------|
G#|-2-----------------------2-----------------------|-------------------------------------------------|
D#|-------------------------------------------------|-0-----------------------0-----------------------|
A#|-------------------------------------------------|-------------------------------------------------|


A#|-1-----------------------------------1-----------|-3-----------------------4-----------------------|
 F|-1-------------------------------4-------4-------|-3-------3---3---3---3---------------------------|
C#|-----------------------------3---------------3---|-0-------0---0---0---0---4-------4---4---4---4---|
G#|-3-----------------------------------------------|-------------------------2-------2---2---2---2---|
D#|-------------------------------------------------|-2-------2---2---2---2---------------------------|
A#|-------------------------------------------------|-3-------3---3---3---3---4-------4---4---4---4---|


A#|-5-----------------------------------------------------|------------------------------------------------------------------|
 F|----------------0--------------------------------0-----|---------------5-----------------3-----1-----0--------------------|
C#|-2--------2--------------------------------2-----------|-2-------------2--------------------------------------------------|
G#|-------2-----------------2-----2-----2-----------------|-------2----------------------------------------------------------|
D#|-0-----------------------0-----0-----------------------|-------2-------3-----3-----3-------------------------2------------|
A#|-------------------------------------------------0-----|-------0-------1-----1-----1-----------------3-------3------------|


A#|--------------------------------------------------------------------------|----------------------------8--------7--5-----7-----0-----0-----3-----0--|
 F|---------------------------0-----1--------------0-----------0-------------|-------------------------------------------------------------------------|
C#|-0-------------------2-----------------2--------------2-------------------|-------0-----------------------------------------------------------------|
G#|---------------------------------------3----------------------------------|-------------------------------------------------------------------------|
D#|-2--------2----------------------------3-----------------------------2----|-------2-----------2--------0-----------------0-----------------0--------|
A#|-3--------3----------------------------1--------------------3--------3----|-------3-----------3-----------------------------------------------------|


A#|----0-----------------------|-------------------------------------------------------|
 F|----------------------------|----------------0--------------------------------0-----|
C#|----------------------------|-2--------2--------------------------------2-----------|
G#|----------------------------|-------2-----------------2-----2-----2-----------------|
D#|----------2-----2-----2-----|-0-----------------------0-----0-----------------------|
A#|----------0-----0-----0-----|-------------------------------------------------0-----|


A#|---------------5-----------------3-----1---------------------------|---------------------------0-----1--------------0-----1-----3-------------|
 F|---------------------------------------------5---------------------|-1-------------------3--------------------------------------1-------------|
C#|-2-------------2-----------------------------0---------------------|-0----------------------------------------------------------0-------------|
G#|-------2-----------------------------------------------------------|---------------------3-----------3--------------------------2-------------|
D#|-------2-------3-----3-----3---------------------------------------|---------------------1-----------1--------------------------3-------------|
A#|-------0-------1-----1-----1-----------------3-------------3-------|-3--------3---------------------------------------------------------------|


A#|-------8------------------------------------------------------|-------------------------------------|
 F|-------------------------8------8--8------8--8------8--8------|----7--7-----------7-----7-----7-----|
C#|-------------------------7------7--7------7--7------7--7------|----7--7-----------7-----7-----7-----|
G#|-------------------------7------7--7------7--7------7--7------|----7--7-----------7-----7-----7-----|
D#|-------------------------5------5--5------5--5------5--5------|----5--5-----------5-----5-----5-----|
A#|--------------------------------------------------------------|-------------------------------------|


A#|-----------|
 F|-----------|
C#|-----------|
G#|-----------|
D#|-----------|
A#|-----------|
Login or Register to remove this ad.