Ads

Tadaima (Monogatari Series Second Season) Guitar Tab

Submitted: Aug 04, 2014 by cyx77 (Last updated: Aug 05, 2014)

5
Average: 5 (7 votes)
Download | Listen
Game: Monogatari Series Second Season
Composer(s): Satoru KĊsaki
Style: 2 or more instruments, Arrangement, Fingerstyle

Click here for a video example.

AutoScroll: Slow | Medium | Fast
                               Tadaima  [Duet]                                  


			Composed By: Satoru Kosaki
		               Standard Tuning

*This piece is arranged for two guitars. Ties are included in the downloadable zip file. 
For the parts designated with the letter "g" you may use a slide or a grace note depending 
on which sound works best for you.

Part 1: [Accompaniment]

     W                   E  E  E  E  H           E  E  E  E  H         
E||-------------------|-----------1-----------|-----------1-----------|
B||-------------------|-----1-----------------|-----1-----------------|
G||-------------------|--------3--------------|--------3--------------|
D||-------------------|--0--------------------|--0--------------------|
A||-------------------|-----------------------|-----------------------|
E||-------------------|-----------------------|-----------------------|


  E  E  E  E  H           E  E  E  E  H           E  E  E  E  H         
-----------------------|-----------------------|-----------------------|
-----4-----4-----------|-----4-----4-----------|-----------4-----------|
--------3--------------|--------3--------------|--------3--------------|
--1--------------------|--1--------------------|-----1-----------------|
-----------------------|-----------------------|-----------------------|
-----------------------|-----------------------|--4--------------------|


  E  E  E  E  H           E  E  H.              E  E  E  Q    Q.      
-----------------------|---------------------|-----------------------|
-----------4-----------|---------------------|--------4--3-----------|
--------3--------------|--------3------------|--------3--3----3------|
-----1-----------------|-----3--3------------|-----3-----------------|
-----------------------|--1------------------|--1--------------------|
--4--------------------|---------------------|-----------------------|


  E  E  E  E  H           E  E  E  E  H           E  E  E  E  H         
-----------1-----------|-----------1-----------|-----------------------|
-----1-----------------|-----1-----------------|-----4-----4-----------|
--------3--------------|--------3--------------|--------3--------------|
--0--------------------|--0--------------------|--1--------------------|
-----------------------|-----------------------|-----------------------|
-----------------------|-----------------------|-----------------------|


  E  E  E  E  H           E  E  E  E  H           H        H         
-----------------------|-----------------------|--------------------|
-----------4-----------|-----------4-----------|--4--------3--------|
--------1--------------|-----3--0--------------|--3--------3--------|
-----1-----------------|-----------------------|--------------------|
-----------------------|--1--------------------|--1--------1--------|
--4--------------------|-----------------------|--------------------|


  E  E  E  E  H           E  E  E  E  E  Q.        Q    Q    H         
--------1--------------|-----------3------------|---------------------|
-----------4-----------|--------2--------4------|---------------------|
-----3-----------------|-----3------------------|--1---------1--------|
--1--------------------|--1---------------------|--1----5----3--------|
-----------------------|------------------------|---------------------|
-----------------------|------------------------|--4---------4--------|


  E  E  E  E  H           H        H           E  E  Q    H         
-----------------------|--------------------|-------------3--------|
-----------3--4--------|-----------3--------|--------4----2--------|
--3-----3-----3--------|--1--------1--------|-----3-------3--------|
--3--3-----------------|--1--------3--------|--1----------1--------|
--------------3--------|-----------1--------|----------------------|
--3--------------------|--1-----------------|----------------------|


  Q    Q    H           Q    E  E  H           E  E  E  E  H         
--4------------------|----------------------|-----------------------|
--4---------2--------|--2-------2--2--------|--2--------2-----------|
--4---------1--------|--3----------2--------|--3-----3--------------|
-------6----3--------|--4----4-----4--------|--4--4-----------------|
------------4--------|----------------------|-----------------------|
--4------------------|--2----------2--------|--2--------------------|


  E  E  E  E  H           E  E  E  E  H           E  E  E  E  H         
-----------------------|-----------------------|-----------------------|
--2--------2-----------|--4--------4-----------|--6-----6-----5--------|
--3-----3--------------|--5-----5--------------|--5-----5-----5--------|
--4--4-----------------|--6--6-----------------|-----5-----5-----------|
-----------------------|-----------------------|--3-----------3--------|
--2--------------------|--4--------------------|-----------------------|


    W                   E  E  E  E  H           E  E  E  E  H         
--2g3----------------|-----------1-----------|-----------3-----------|
--4g5----------------|--1-----1--------------|--3-----3--------------|
---------------------|-----2-----------------|--3--3-----------------|
---------------------|--3--------------------|-----------------------|
---------------------|-----------------------|--1--------------------|
---------------------|--1--------------------|-----------------------|


  E  E  E  E  H           E  E  E  Q    E  E  E     E  E  E  E  H         
-----------3-----------|-----------1-------------|-----------2-----------|
--1-----1--------------|--1--------1----1--------|--------3--------------|
-----0-----------------|--2-----2----------2-----|-----2-----------------|
--2--------------------|-----3----------------3--|--0--------------------|
--3--------------------|-------------------------|-----------------------|
-----------------------|--1----------------------|-----------------------|


  E  E  E  E  H           E  E  E  E  H           H        H         
-----------3-----------|-----------1-----------|--0--------2--------|
--------3--------------|--------2--------------|--1--------3--------|
-----3-----------------|-----3-----------------|--0--------2--------|
-----------------------|-----------------------|-----------0--------|
-----------------------|--1--------------------|--3-----------------|
--3--------------------|-----------------------|--------------------|


  E  E  E  E  H           E  E  E  E  H           E  E  E  E  H         
-----------3-----------|-----------0-----------|-----------2-----------|
--------0--------------|--------1--------------|--------3--------------|
-----0-----------------|-----0-----------------|-----2-----------------|
-----------------------|-----------------------|-----------------------|
-----------------------|--3--------------------|-----------------------|
--3--------------------|-----------------------|--2--------------------|


  E  E  E  E  E  E  E  E     H        H           H        H         
--------------------3-----|-----------3--------|--3--------3--------|
--1-----------------0-----|--1--------4--------|--3--------5--------|
--0-----0--------0--------|--0-----------------|--0--------2--------|
-----0--------------------|-----------1--------|--------------------|
--------------------------|--3-----------------|-----------0--------|
--3--------3--1--------1--|--------------------|--3-----------------|


  E  E  E  Q    E  Q       H        H           E  E  E  E  H         
-----------0----0-------|-----------2--------|-----------------------|
--1-----1----------1----|--3-----------------|-----0-----3-----------|
--2--2------------------|--2-----------------|--------0--------------|
------------------------|--0-----------------|-----------------------|
--0---------------------|--------------------|-----------------------|
------------------------|--------------------|--3--------------------|


  E  E  E  Q    Q.        E  E  E  E  H           E  E  E  Q    Q.      
-----------------------|-----------------------|-----------------------|
--1-----3--1-----------|-----0-----3-----------|--1-----3--1-----------|
-----0----------0------|--------0--------------|-----0----------2------|
-----------------------|-----------------------|-----------------------|
-----------------------|-----------------------|-----------------------|
--3--------------------|--3--------------------|--3--------------------|


           ^                              
  H        H           W                  
--------------------|-------------------||
-----------0--------|-------------------||
-----------0--------|-------------------||
-----------0--------|-------------------||
--------------------|-------------------||
-----------3--------|-------------------||



Part 2: [Melody]


     H.           E  E     Q    E  H        E     Q    Q    Q    Q     
E||---------------------|----------------------|-----------------4----|
B||---------------------|----------------------|------------3---------|
G||------------------3--|--5----3--3-----------|-------3--------------|
D||---------------------|----------------------|----------------------|
A||---------------------|----------------------|----------------------|
E||---------------------|----------------------|----------------------|


  Q    E  H        E     Q      Q    Q    Q       Q    E  H        E   
--4----3--3-----------|-------2g3--------------|----------------------|
----------------------|--------------6----4----|--3----4--4-----------|
----------------------|------------------------|----------------------|
----------------------|------------------------|----------------------|
----------------------|------------------------|----------------------|
----------------------|------------------------|----------------------|


  Q    Q    Q    Q       Q    E  H        E     H.           E  E   
----------------------|----------------------|---------------------|
-------4----6----4----|--4----3--3-----------|---------------------|
----------------------|----------------------|------------------3--|
----------------------|----------------------|---------------------|
----------------------|----------------------|---------------------|
----------------------|----------------------|---------------------|


  Q    E  H        E     Q    Q    Q    Q       Q    E  H        E   
----------------------|-----------------4----|--4----3--3-----------|
----------------------|------------3---------|----------------------|
--5----3--3-----------|-------3--------------|----------------------|
----------------------|----------------------|----------------------|
----------------------|----------------------|----------------------|
----------------------|----------------------|----------------------|


  Q    Q    Q    Q       W                   H        Q    E  E   
--4----3--------------|-------------------|----------------------|
------------6----4----|-------------------|--4--------3----4--4--|
----------------------|--3----------------|----------------------|
----------------------|-------------------|----------------------|
----------------------|-------------------|----------------------|
----------------------|-------------------|----------------------|


  W                   H.           E  E       Q.     E  Q.     E   
-------------------|---------------------|------------------------|
-------------------|------------------4--|--6g8------6--6------6--|
-------------------|---------------------|------------------------|
-------------------|---------------------|------------------------|
-------------------|---------------------|------------------------|
-------------------|---------------------|------------------------|


  Q    Q    Q    E  E     Q      Q    Q    Q       Q.     E  H         
-------6---------------|------------------------|---------------------|
--6--------------------|-------8g9----8----6----|--6------8--8--------|
------------8----8--7--|--5---------------------|---------------------|
-----------------------|------------------------|---------------------|
-----------------------|------------------------|---------------------|
-----------------------|------------------------|---------------------|


  Q.     E  Q.     E     Q    Q    Q    E  E     Q.     E  H         
--4-------------------|-------9---------------|--6------------------|
---------4--6------6--|--7---------7----7--9--|---------------------|
----------------------|-----------------------|---------6--6--------|
----------------------|-----------------------|---------------------|
----------------------|-----------------------|---------------------|
----------------------|-----------------------|---------------------|


  Q    Q    Q    Q       Q.     E  H           Q.     E  H         
-----------------6----|--4------6--6--------|--6------8--8--------|
------------7---------|---------------------|---------------------|
--6----6--------------|---------------------|---------------------|
----------------------|---------------------|---------------------|
----------------------|---------------------|---------------------|
----------------------|---------------------|---------------------|


  W                   Q    Q    Q    Q         Q.     E  H         
-------------------|-----------------5----|--4g5------3--3--------|
-------------------|------------6---------|-----------------------|
-------------------|-------5--------------|-----------------------|
-------------------|--7-------------------|-----------------------|
-------------------|----------------------|-----------------------|
-------------------|----------------------|-----------------------|


   Q    Q    Q    Q         Q.     E  H             Q    Q    Q    Q     
------------------6----|--5g6------5--5--------|--5g8----6----5---------|
-------------8---------|-----------------------|------------------------|
--------9--------------|-----------------------|-------------------7----|
--10-------------------|-----------------------|------------------------|
-----------------------|-----------------------|------------------------|
-----------------------|-----------------------|------------------------|


    Q.     E  H           Q    Q    Q    Q         H        H         
--4g5------3--3--------|--6----5----3---------|-------------5--------|
-----------------------|-----------------6----|--6g8-----------------|
-----------------------|----------------------|----------------------|
-----------------------|----------------------|----------------------|
-----------------------|----------------------|----------------------|
-----------------------|----------------------|----------------------|


  Q    Q    Q    Q         Q.     E  H           Q      Q    Q    Q     
-----------------7----|--6g7------5--5--------|--------------5----8----|
------------8---------|-----------------------|-------6g7--------------|
-------7--------------|-----------------------|--7---------------------|
--9-------------------|-----------------------|------------------------|
----------------------|-----------------------|------------------------|
----------------------|-----------------------|------------------------|


  Q.      E  H            Q    Q    Q    Q       Q    Q    Q     Q     
--8------10--7--------|--10----8----7----8----|--7--------------------|
----------------------|-----------------------|-------8---------10----|
----------------------|-----------------------|------------9----------|
----------------------|-----------------------|-----------------------|
----------------------|-----------------------|-----------------------|
----------------------|-----------------------|-----------------------|


  W                   H           H           W                 
-------------------|-----------------------|-------------------|
--8----------------|--8--------8g10--------|--8----------------|
-------------------|-----------------------|-------------------|
-------------------|-----------------------|-------------------|
-------------------|-----------------------|-------------------|
-------------------|-----------------------|-------------------|


  W                   W                   W                   W                 
-------------------|-------------------|-------------------|-------------------|
-------------------|-------------------|-------------------|-------------------|
-------------------|-------------------|-------------------|-------------------|
-------------------|-------------------|-------------------|-------------------|
-------------------|-------------------|-------------------|-------------------|
-------------------|-------------------|-------------------|-------------------|


-------------------||
-------------------||
-------------------||
-------------------||
-------------------||
-------------------||
Login or Register to remove this ad.

2 comments on Tadaima

Great Work

5

Splendid work as always. Just wondering is there any way you could arrange a solo version?

I tried

What makes this piece sound nice is the details in the accompaniment and if I tried to arrange it for one guitar, some of the little details like adding or dropping a finger between two chord changes would be lost. It would probably sound too blocky and harsh as well. I tried to do it before I wrote this version but it didn't sound very good. There were too many times where it sounded empty or where I need my fingers to be in two places on the fretboard at once.