Ads

Kuusou Mesorogiwi (Mirai Nikki) Guitar Tab

Submitted: Nov 13, 2013 by AcidAce

5
Average: 5 (1 vote)
Download | Listen
Game: Mirai Nikki
Composer(s): Yousei Teikoku, Tatsuya Kato
Style: Transcription

This song is also called Opening Theme, 空想 メソロギヰ

AutoScroll: Slow | Medium | Fast
AcidAce-KILLERTF

Mirai Nikki 

Kuusou Mesorogiwi


Start*

E||------2--4--5--4--2----4--|--2--4-----5----4----2-|
B||--4------------------4----|---------4----4----4---|
G||--------------------------|-----------------------|x4
D||--------------------------|-----------------------|
A||--------------------------|-----------------------|
E||--------------------------|-----------------------|


E||-----6-5-6---9h7—6-5------|-----6-5-6---7-7--6-6-----|
B||--4-----------------------|--4-----------------------|
G||--------------------------|--------------------------|x2
D||--------------------------|--------------------------|
A||--------------------------|--------------------------|
E||--------------------------|--------------------------|


E||-----------4--6--4-------|-----------4--6--4--11--6-|
B||--4--6--7-----------7--7-|--4--6--7-----------------|
G||-------------------------|--------------------------|
D||-------------------------|--------------------------|
A||-------------------------|--------------------------|
E||-------------------------|--------------------------|


E||--4-4-4-----4-4-5-4-2-----|--4-4-4-----4-4-5-4---------|
B||--------4-4---------------|--------4-4-----------------|
G||--------------------------|----------------------------|x2
D||--------------------------|----------------------------|
A||--------------------------|----------------------------|
E||--------------------------|----------------------------|


E||--2--4--5--5h7--5—-4--5h7--5---9--7--5--5--7p5p4-|
B||-------------------------------------------------|
G||-------------------------------------------------|
D||-------------------------------------------------|
A||-------------------------------------------------|
E||-------------------------------------------------|


E||--4-5---7—5h4---2h4---4--2--5--4--5—-5h7------------|
B||----------------------------------------------------|
G||----------------------------------------------------|
D||----------------------------------------------------|
A||----------------------------------------------------|
E||----------------------------------------------------|


E||--4-5---7—5h4---2h4---5--4--0----4—-5h8-------------|
B||-------------------------------4--------------------|
G||----------------------------------------------------|
D||----------------------------------------------------|
A||----------------------------------------------------|
E||----------------------------------------------------|


E||--8--6--8—-9---------|---—-7-—9—--5-----|
B||---------------9-----|--9---------------|
G||---------------------|------------------|
D||---------------------|------------------|
A||---------------------|------------------|
E||---------------------|------------------|


E||--5-5-4-2--2-2-2--4--5--4----|--8—--—--—-9---|
B||-----------------------------|-----7--9------|
G||-----------------------------|---------------|
D||-----------------------------|---------------|
A||-----------------------------|---------------|
E||-----------------------------|---------------|

E||-----4---7--5---7p5p4---|
B||--2---------------------|
G||------------------------|
D||------------------------|
A||------------------------|
E||------------------------|

Repeat One More time from the Start*


Solo (this part starts at 2:26 of the video)

E||----------7--------14----—---—-—---—-------|-------12-14—-12—------------12—------16-14-12----|
B||--9---7--------9-------16--17--16--14------|-12-14------------16-14--16-----16-14----------16-|
G||--------------------------------------13---|--------------------------------------------------|
D||-------------------------------------------|--------------------------------------------------|
A||-------------------------------------------|--------------------------------------------------|
E||-------------------------------------------|--------------------------------------------------|

E||----9----9----9----9----12----11----14----14-------|
B||---------------------------------------------------|
G||---------------------------------------------------|
D||---------------------------------------------------|
A||---------------------------------------------------|
E||---------------------------------------------------|
 
END OF SOLO (2:59)

E||--2--4--5--5h7--5—-4--5h7--5---9--7--5--5--7p5p4-|
B||-------------------------------------------------|
G||-------------------------------------------------|
D||-------------------------------------------------|
A||-------------------------------------------------|
E||-------------------------------------------------|


E||--4-5---7—5h4---2h4---4--2--5--4--5—-5h7------------|
B||----------------------------------------------------|
G||----------------------------------------------------|\
D||----------------------------------------------------| \
A||----------------------------------------------------|  \
E||----------------------------------------------------|   \
                                                            X2
E||--4-5---7—5h4---2h4---5--4--0----4—-5h8-------------|   /
B||-------------------------------4--------------------|  /
G||----------------------------------------------------| /
D||----------------------------------------------------|/
A||----------------------------------------------------|
E||----------------------------------------------------|


E||--8--6--8—-9---------|---—-7-—9—--5-----|
B||---------------9-----|--9---------------|
G||---------------------|------------------|
D||---------------------|------------------|
A||---------------------|------------------|
E||---------------------|------------------|


E||--5-5-4-2--2-2-2--4--5--4----|--8—--—--—-9---|
B||-----------------------------|-----7--9------|
G||-----------------------------|---------------|
D||-----------------------------|---------------|
A||-----------------------------|---------------|
E||-----------------------------|---------------|

E||-----4---7--5---7p5p4---|
B||--2---------------------|
G||------------------------|
D||------------------------|
A||------------------------|
E||------------------------|


E||---4--4--9--4--5--5--4-4-|---4-4-4-4-----4-9-9-8-4--4-4-|
B||-------------------------|-----------4-4----------------|
G||-------------------------|------------------------------|
D||-------------------------|------------------------------|
A||-------------------------|------------------------------|
E||-------------------------|------------------------------|


E||---4--4-4-9--4--5-5-5-5-3-4-----4-4-4-4---9-9-9-11-8---9-8-9-9-|
B||----------------------------------------4----------------------|
G||---------------------------------------------------------------|
D||---------------------------------------------------------------|
A||---------------------------------------------------------------|
E||---------------------------------------------------------------|
Login or Register to remove this ad.

6 comments on Kuusou Mesorogiwi

what is this???

what is this ? this arent my tabs I uploaded , I think something went wrong or someone modified this I have to post it in other place. plz eliminate this and the account if is possible

I've always wondered what

I've always wondered what would happen if you filled in the Tabber dialog with someone other than the auto-filled yourself.

I think they're saying it IS

I think they're saying it IS their tab, but it's different than how they submitted it.

What's wrong with the tab? Seems pretty okay to me.

It is AcidAce's tab, but I

It is AcidAce's tab, but I corrected some notes without telling them.

Well, clearly some people

Well, clearly some people like their tabs better when they're less accurate :-/

My old tab still the same (AcidAce)

Man... I wonder why this happened