Ads

Hal 2 (Minecraft) Guitar Tab

Submitted: Oct 31, 2013 by scarecrowlol

5
Average: 5 (12 votes)
Download | Listen
Game: Minecraft
Composer(s): Daniel Rosenfeld
Style: Arrangement, Fingerstyle

AutoScroll: Slow | Medium | Fast
Title: Hal 2
SubTitle: Minecraft
Artist: Daniel Rosenfeld (a.k.a. C418)
Tabber: Mitch Jackson
Tempo = 75
T/S = 4/4


        ♪♫•*¨*•.¸¸ CAPO 5 ¸¸.•*¨*•♫♪



NOTE: The mp3 starts out quiet and builds up in volume.


   Gradually build up in volume to bar 15  ---->

     E  E  E  Q     Q.            E  E  E  E  H                E  E  E  Q     Q.            E  E  E  E  H
E |----------------------------|----------------------------|----------------------------|----------------------------|
B |--------0--------0----------|--------0-------------------|--------0--------0----------|--------0-------------------|
G |-----------0----------------|-----------0L-L-------------|-----------0----------------|-----------0L-L-------------|
D |-----2----------------------|-----2----------------------|-----2----------------------|-----2----------------------|
A |--5-------------------------|--5-------------------------|--5-------------------------|--5-------------------------|
E |----------------------------|----------------------------|----------------------------|----------------------------|



     E  E  E  Q     Q.            E  E  E  E  H                E  E  E  Q     Q.            E  E  E  E  H
  |----------------------------|----------------------------|----------------------------|----------------------------|
  |--------0--------0----------|--------0-------------------|--------0--------0----------|--------0-------------------|
  |-----------0----------------|-----------0L-L-------------|-----------0----------------|-----------0L-L-------------|
  |-----2----------------------|-----2----------------------|-----2----------------------|-----2----------------------|
  |--5-------------------------|--5-------------------------|--5-------------------------|--5-------------------------|
  |----------------------------|----------------------------|----------------------------|----------------------------|



     E  E  E  Q     Q.            E  E  E  E  H                E  E  E  Q     Q.            E  E  E  E  H
  |----------------------------|----------------------------|----------------------------|----------------------------|
  |--------0--------0----------|--------0-------------------|--------0--------0----------|--------0-------------------|
  |-----------0----------------|-----------0L-L-------------|-----------0----------------|-----------0L-L-------------|
  |-----2----------------------|-----2----------------------|-----2----------------------|-----2----------------------|
  |--5-------------------------|--5-------------------------|--5-------------------------|--5-------------------------|
  |----------------------------|----------------------------|----------------------------|----------------------------|



     E  E  E  Q     Q.            E  E  E  E  H                E  E  E  Q     E  Q          E  E  E  H           E 
  |----------------------------|----------------------------|--0--------------3--2-------|-----0-----5----------------|
  |--------0--------0----------|--------0-------------------|--------0--------0----------|--3-----0-------------------|
  |-----------0----------------|-----------0L-L-------------|-----------0----------------|-----------0-----------0----|
  |-----2----------------------|-----2----------------------|--0--2----------------------|-----2----------------------|
  |--5-------------------------|--5-------------------------|----------------------------|--2-------------------------|
  |----------------------------|----------------------------|----------------------------|----------------------------|



     E  E  E  Q     E  Q          E  E  E  E  H                E  E  E  Q     E  E  E       E  E  E  Q.       Q
  |--0--------------7--5-------|--0--7-----3L-L-------------|--3--5--7-----------3--5----|--0-------------------------|
  |--------0--------0----------|--------0-------------------|--------0--------0----------|--------0-----------0-------|
  |-----------0----------------|-----------0L-L-------------|-----------0----------------|-----------0----------------|
  |--0--2----------------------|--0--2----------------------|-----2----------------------|-----2----------------------|
  |----------------------------|----------------------------|--0-------------------------|--0-------------------------|
  |----------------------------|----------------------------|----------------------------|----------------------------|



     E  E  E  Q     E  Q          E  E  E  Q.       Q          E  S S E  E  E  S S E  E       E  S S E  H           E
  |--10----7-----------10------|--5--0----------------------|--3----2----------3-0-2-------|--3----0----5----------------|
  |--------0--8-----0----------|--------0-----------0-------|---------0-----3--0-----------|---------0-------------------|
  |-----------0----------------|-----------0----------------|-----0------0-----------------|-----0------0-----------0----|
  |----------------------------|-----2----------------------|--2---------------------------|--2--------------------------|
  |--0--7----------------------|--0-------------------------|------------------------------|--2--------------------------|
  |----------------------------|----------------------------|--0----------------------3----|--0--------------------------|



     E  S S E  E  E  S S E  E       E  E  E  E  H                E  S S E  E  E  S S E  E       E  S S E  H           E
  |--0----7----0-----7-0-3-------|-----7-----3L-L-------------|--3----2----------3-0-2-------|--3----0----5----------------|
  |---------0--------0-----------|--------0--5L-L-------------|---------0-----3--0-----------|---------0-------------------|
  |-----0---------0--------------|-----------0L-L-------------|-----0------0-----------------|-----0------0-----------0----|
  |--2---------------------------|-----2----------------------|--2---------------------------|--2--------------------------|
  |-------------------------2----|----------------------------|------------------------------|--2--------------------------|
  |--0---------------------------|--0-------------------------|--0----------------------3----|--0--------------------------|



     E  S S E  E  E  S S E  E       E  E  E  E  H                E  E  E  Q     E  E  E       E  E  E  H           E
  |--0----7----0-----7-0-2-------|-----7--2--0L-L-------------|--3-----2-----------3-------|--------2-------------------|
  |---------0--------0-----------|--------0--3L-L-------------|-----0-----3-----0----------|-----0-----3----------------|
  |-----0---------0--------------|-----------0L-L-------------|--2--------0----------------|--2--------------------0----|
  |--2---------------------------|-----2----------------------|----------------------------|----------------------------|
  |-------------------------2----|----------------------------|--3-------------------------|--2-------------------------|
  |--0---------------------------|--0-------------------------|-----------------------3----|--3-------------------------|



     E  E  E  Q     E  E  E       E  E  E  E  H                E  E  E  Q     E  E  E       E  E  E  E  H
  |-----0--7--3-----7--5-------|----------------------------|-----------------7--5-------|----------------------------|
  |--3--------------0----------|--------0-------------------|--------0--------0----------|--------0-------------------|
  |----------------------------|-----------0L-L-------------|-----------0----------------|-----------0L-L-------------|
  |--0-------------------------|--0--2----------------------|--0--2----------------------|--0--2----------------------|
  |--0--------------------0----|--0-------------------------|-----------------------0----|--0-------------------------|
  |----------------------------|--2-------------------------|--1-------------------------|--2-------------------------|



     E  E  E  Q     E  E  E       E  E  E  E  Q     Q          E  S S E  E  S S E  E  E       E  S S E  E  E  E  E  E 
  |--------2--------2----------|--------------3-----5-------|-------3----2-----------------|-------3----------------2----|
  |--------0--3-----0----------|--------0-------------------|--0--------------3-0----------|--0--------------------------|
  |-----------0--------0-------|-----------0----------------|---------------0--------------|------------2----------------|
  |--0--2----------------------|--0--2----------------------|---------4--0------4----------|---------4--0--------4-------|
  |----------------------------|--0-------------------------|-----2----------------2-------|--0--2---------0--2----------|
  |--1--------------------3----|--2-------------------------|--0----------------------0----|-----------------------------|



     E  S S E  E  S S E  E  E       E  S S E  E  E  E  E  E       E  S S E  E  S S E  E  E       E  S S E  E  E  E  E  E
  |--7----5----0-----------------|-------5----0----------------|-------3----2-----------------|-------3----------------2----|
  |---------0-------2-0----------|--0------0-----------0-------|--0--------------3-0----------|--0--------------------------|
  |---------------2------2-------|------------0-----0-----0----|---------------0--------------|------------2----------------|
  |--0--2------------------------|-----2---------2-------------|---------4--0------4----------|---------4--0--------4-------|
  |-------------------------2----|-----------------------------|-----2----------------2-------|--0--2---------0--2----------|
  |--0---------------------------|--3--------------------------|--0----------------------0----|-----------------------------|



     E  S S E  E  S S E  E  E       E  E  E  E  H                E  E  E  Q     Q.            E  E  E  E  H
  |--7----5----0-----------------|--------2-------------------|----------------------------|----------------------------|
  |---------0-------2-0----------|-----------3L-L-------------|--------0--------0----------|--------0-------------------|
  |---------------2------2-------|----------------------------|-----------0----------------|-----------0L-L-------------|
  |--0--2------------------------|-----2----------------------|--0--2----------------------|--0--2----------------------|
  |-------------------------2----|----------------------------|----------------------------|--0-------------------------|
  |--0---------------------------|--3-------------------------|--0-------------------------|----------------------------|

                                                             Gradually drop off in volume to end --->

     E  E  E  Q     Q.            E  E  E  E  H                E  E  E  Q     Q.            E  E  E  E  H
  |----------------------------|----------------------------|----------------------------|----------------------------|
  |--------0--------0----------|--------0-------------------|--------0--------0----------|--------0-------------------|
  |-----------0----------------|-----------0L-L-------------|-----------0----------------|-----------0L-L-------------|
  |--0--2----------------------|--0--2----------------------|--0--2----------------------|--0--2----------------------|
  |----------------------------|----------------------------|----------------------------|----------------------------|
  |--0-------------------------|--3-------------------------|--0-------------------------|--0-------------------------|

   

     E  E  E  Q     Q.            E  E  E  E  H                E  E  E  Q     Q.            E  E  E  E  H
  |----------------------------|----------------------------|----------------------------|----------------------------|
  |--------0--------0----------|--------0-------------------|--------0--------0----------|--------0-------------------|
  |-----------0----------------|-----------0L-L-------------|-----------0----------------|-----------0L-L-------------|
  |--0--2----------------------|--0--2----------------------|-----2----------------------|-----2----------------------|
  |----------------------------|----------------------------|--5-------------------------|--5-------------------------|
  |--0-------------------------|--0-------------------------|----------------------------|----------------------------|



     E  E  E  Q     Q.            W
  |----------------------------|----------------------------||
  |--------0--------0----------|--L-------------------------|| 
  |-----------0----------------|--L-------------------------||
  |-----2----------------------|--L-------------------------||
  |--5-------------------------|--L-------------------------||
  |----------------------------|----------------------------||

Login or Register to remove this ad.

2 comments on Hal 2

: D

I've been waiting for this song. Thank you!

HNNNNNNGGGGGG

HNNNNNNGGGGGG