Ads

Jogging Theme (Mike Tyson's Punch Out) Guitar Tab

Submitted: Dec 24, 2010 by GuitarGuy

5
Average: 5 (6 votes)
Download | Listen
Game: Mike Tyson's Punch Out
Composer(s): Kenji Yamamoto
Style: Arrangement, Fingerstyle

AutoScroll: Slow | Medium | Fast
Gtr I (E A D G B E) - Training Theme
Arranged by: Romyl Lopez a.k.a. GuitarGuy

    Q=170
   
    Gtr I
    E E E E E E E E   E E E E E E E E   E E E E E E E E   E E E E E E E E
||------------------|-0---------------|-----------------|-----------------|
||o-----------------|-----3-1---0-----|-----------------|---3---1-0-------|
||--2---------------|---------------0-|-----------------|-------------2---|
||------------------|-----------------|-----------------|-----------------|
||o-0-0-0-0-0-0-0-0-|-0-0-0-0-0-0-0---|-----------------|-----------------|
||------------------|---------------3-|-3-3-3-3-3-3-3-3-|-3-3-3-3-3-3-3-3-|


  
   E E E E E E E E   E E E E E E E E   E E E E E E E E   E E E E E E E E
*|------------------|-----------------|-----------------|-----------------|
*|------------------|---1---0---------|-----------------|-----------------|
*|------------------|---------2---0---|-----------------|-----------------|
*|-3----------------|-----------------|-2---------------|-----------------|
*|------------------|-----------------|-----------------|-----------------|
*|-1-1-1-1-1-1-1-1--|-1-1-1-1-1-1-1-1-|-0-0-0-0-0-0-0-0-|-0-0-0-0-0-0-0-0-|


  
   |-3-|
   E E E +H.           Q. X E E S.. E S. T
*|-------------------|---------------------|
*|-------------------|---------------------|
*|-------------------|---------------------|
*|-0-2-3-(3)---------|------3-0-----2------|
*|-------------------|---------------------|
*|-1-1-1--1--1-1-1-1-|-1--1-1-1-1---0-0--0-|
   


  H.       E   S.+T    +X  E E E H   S. X
*|--------------------|--------------------|
*|--------------------|--------------------|
*|--------------2-(2)-|-(2)-2---1----------|
*|--------------------|--------------------|
*|--------------------|--------------------|
*|-0--0-0-0-0-0-0--0--|--0--0-0-0-0-0-0--0-|
  E  E E E E E E   E     E  E E E E E E  E


  
   E E E E Q   E E   +E  E E E E E E E   E E E E Q   E E   +E  E E E E E E E
*|-----------------|-----------0-------|-----------------|-------------------|
*|-----------------|-------0-1---3-1-0-|-----------------|---------0-3-1-0---|
*|-2-----2-------2-|-(2)-2-------------|-0-----0-------0-|-(0)-0-2---------2-|
*|-----------------|-------------------|-----------------|-------------------|
*|-0-0-0-0-0-0-0-0-|--0--0-0-0-0-0-0-0-|-----------------|-------------------|
*|-----------------|-------------------|-3-3-3-3-3-3-3-3-|--3--3-3-3-3-3-3-3-|
   


  
   E E E E Q   E E   +E  E E E E E E E   W                 E E E E E E E E
*|-----------------|-------------------|-----------------|-0-0--------------||
*|-----------------|-----------1-0-----|-----------------|-----3-3-1-1-0-0-o||
*|-----------------|-------0-2-----2-0-|-----------------|------------------||
*|-3-----3-------3-|-(3)-3-------------|-2---------------|------------------||
*|-----------------|-------------------|-----------------|-----------------o||
*|-1-1-1-1-1-1-1-1-|--1--1-1-1-1-1-1-1-|-0-0-0-0-0-0-0-0-|-0-0-0-0-0-0-0-0--||
   

Login or Register to remove this ad.

2 comments on Jogging Theme

Also known as the "Nigga

Also known as the "Nigga stole my bike" theme

don't know the game but your

don't know the game but your theme is fun :D