Menu Select (Metroid Prime) Bass/Guitar Tab

Submitted: Sep 22, 2016 by Strings805 (Last updated: Sep 22, 2016)

5
Average: 5 (1 vote)
Download | Listen
Game: Metroid Prime
Composer(s): Kenji Yamamoto
Style: 2 or more instruments, Arrangement
Series: Metroid

AutoScroll: Slow | Medium | Fast
Metroid Prime Theme 7172016.txt

Three Parts:

Guitar 1 (Rhythm)
Bass
Guitar 2 (Lead)
——————————————————

Guitar 1 (Rhythm)
Intro:

E  :----------------|----------------|----------------|----------------|
B  :----------------|----------------|----------------|----------------|
G  :----------------|----------------|----------------|----------------|
D  :----------------|------------5---|----------------|------------5---|
A  :0-0---0-0---0-0-|--0-0---2---5---|0-0---0-0---0-0-|--0-0---2---5---|
E  :0-0---0-0---0-0-|--0-0---2---3---|0-0---0-0---0-0-|--0-0---2---3---|
A  :0-0-*-0-0-*-0-0-|*-0-0-*-2-------|0-0-*-0-0-*-0-0-|*-0-0-*-2-------|

E  :----------------|----------------|----------------|----------------|
B  :----------------|----------------|----------------|----------------|
G  :----------------|----------------|----------------|----------------|
D  :----------------|------------5---|----------------|------------5---|
A  :0-0---0-0---0-0-|--0-0---2---5---|0-0---0-0---0-0-|--0-0---2---5---|
E  :0-0---0-0---0-0-|--0-0---2---3---|0-0---0-0---0-0-|--0-0---2---3---|
A  :0-0-*-0-0-*-0-0-|*-0-0-*-2-------|0-0-*-0-0-*-0-0-|*-0-0-*-2-------|

Verse:

E  :------------------|-------------------|-------------------|
B  :------------------|-------------------|-------------------|
G  :------------------|-------------------|-------------------|
D  :-5-7-7-7-7-7--7-7-|-7-7--7-7--5-7-7-7-|7-7--7-7--7-7--7-7-|
A  :------------------|-------------------|-------------------|
E  :-3-5-5-5-5-5--5-5-|-5-5--5-5--3-5-5-5-|5-5--5-5--5-5--5-5-|
A  :------------------|-------------------|-------------------|

E  :------------------|------------------|----------------|
B  :------------------|------------------|----------------|
G  :------------------|------------------|----------------|
D  :-5-7-7-7-7-7--7-7-|-7-7-7-7--5-7-7-7-|7-7-5-5-5-5-5-5-|
A  :------------------|------------------|----------------|
E  :-3-5-5-5-5-5--5-5-|-5-5-5-5--3-5-5-5-|5-5-3-3-3-3-3-3-|
A  :------------------|------------------|----------------|

E  :------------------|-------------------|-------------------|
B  :------------------|-------------------|-------------------|
G  :------------------|-------------------|-------------------|
D  :-5-7-7-7-7-7--7-7-|-7-7--7-7--5-7-7-7-|7-7--7-7--7-7--7-7-|
A  :------------------|-------------------|-------------------|
E  :-3-5-5-5-5-5--5-5-|-5-5--5-5--3-5-5-5-|5-5--5-5--5-5--5-5-|
A  :------------------|-------------------|-------------------|

E  :------------------|-------------------|-----------------|
B  :------------------|-------------------|-----------------|
G  :------------------|-------------------|-----------------|
D  :-5-7-7-7-7-7--7-7-|-7-7--7-7--5-7-7-7-|7-7--5-5-5-5-5-5-|
A  :------------------|-------------------|-----------------|
E  :-3-5-5-5-5-5--5-5-|-5-5--5-5--3-5-5-5-|5-5--3-3-3-3-3-3-|
A  :------------------|-------------------|-----------------|

E  :-----------------|-------------------|------------------|
B  :-----------------|-------------------|------------------|
G  :-5-7-7-7-7-7-7-7-|-9----5----5-7-7-7-|7-7-7-7--9----5---|
D  :-5-7-7-7-7-7-7-7-|-9----5----5-7-7-7-|7-7-7-7--9----5---|
A  :-3-5-5-5-5-5-5-5-|-7----3----3-5-5-5-|5-5-5-5--7----3---|
E  :-----------------|-------------------|------------------|
A  :-----------------|-------------------|------------------|

E  :-----------------|-------------------|------------------|
B  :-----------------|-------------------|------------------|
G  :-5-7-7-7-7-7-7-7-|-9----5----3-3-3-3-|3-3-3-3--5----3---|
D  :-5-7-7-7-7-7-7-7-|-9----5----3-3-3-3-|3-3-3-3--5----3---|
A  :-3-5-5-5-5-5-5-5-|-7----3----1-1-1-1-|1-1-1-1--3----1---|
E  :-----------------|-------------------|------------------|
A  :-----------------|-------------------|------------------|

E  :-----------------|-------------------|------------------|
B  :-----------------|-------------------|------------------|
G  :-3-3-3-3-3-3-3-3-|-5----3----3-3-3-3-|3-3-3-3--5----3---|
D  :-3-3-3-3-3-3-3-3-|-5----3----3-3-3-3-|3-3-3-3--5----3---|
A  :-1-1-1-1-1-1-1-1-|-3----1----1-1-1-1-|1-1-1-1--3----1---|
E  :-----------------|-------------------|------------------|
A  :-----------------|-------------------|------------------|

E  :-----------------|-------------------|------------------|
B  :-----------------|-------------------|------------------|
G  :-3-3-3-3-3-3-3-3-|-5----3----5-5-5-5-|5-5-5-5--9----5---|
D  :-3-3-3-3-3-3-3-3-|-5----3----5-5-5-5-|5-5-5-5--9----5---|
A  :-1-1-1-1-1-1-1-1-|-3----1----3-3-3-3-|3-3-3-3--7----3---|
E  :-----------------|-------------------|------------------|
A  :-----------------|-------------------|------------------|

Intro Riff Repeat:

E  :----------------|----------------|----------------|----------------|
B  :----------------|----------------|----------------|----------------|
G  :----------------|----------------|----------------|----------------|
D  :----------------|------------5---|----------------|------------5---|
A  :0-0---0-0---0-0-|--0-0---2---5---|0-0---0-0---0-0-|--0-0---2---5---|
E  :0-0---0-0---0-0-|--0-0---2---3---|0-0---0-0---0-0-|--0-0---2---3---|
A  :0-0-*-0-0-*-0-0-|*-0-0-*-2-------|0-0-*-0-0-*-0-0-|*-0-0-*-2-------|

E  :----------------|----------------|----------------|----------------|
B  :----------------|----------------|----------------|----------------|
G  :----------------|----------------|----------------|----------------|
D  :----------------|------------5---|----------------|------------5---|
A  :0-0---0-0---0-0-|--0-0---2---5---|0-0---0-0---0-0-|--0-0---2---5---|
E  :0-0---0-0---0-0-|--0-0---2---3---|0-0---0-0---0-0-|--0-0---2---3---|
A  :0-0-*-0-0-*-0-0-|*-0-0-*-2-------|0-0-*-0-0-*-0-0-|*-0-0-*-2-------|

2nd Verse:

E  :------------------|-------------------|----------------|
B  :------------------|-------------------|----------------|
G  :------------------|-------------------|----------------|
D  :-5-7-7-7-7-7--7-7-|-7-7--7-7--5-7-7-7-|7-7-7-7-7-7-7-7-|
A  :------------------|-------------------|----------------|
E  :-3-5-5-5-5-5--5-5-|-5-5--5-5--3-5-5-5-|5-5-5-5-5-5-5-5-|
A  :------------------|-------------------|----------------|

E  :------------------|-------------------|-------------------|
B  :------------------|-------------------|-------------------|
G  :------------------|-------------------|-------------------|
D  :-3-5-5-5-5-5--5-5-|-5-5--5-5--3-5-5-5-|-5--5-2-2-2-2--2-2-|
A  :------------------|-------------------|-------------------|
E  :-1-3-3-3-3-3--3-3-|-3-3--3-3--1-3-3-3-|-3--3-0-0-0-0--0-0-|
A  :------------------|-------------------|-------------------|

E  :-----------------|------------------|----------------|
B  :-----------------|------------------|----------------|
G  :-----------------|------------------|----------------|
D  :-3-3-3-3-3-3-3-3-|3-3--3-3--3-3-3-3-|3-3-3-3-3-3-3-3-|
A  :-----------------|------------------|----------------|
E  :-1-1-1-1-1-1-1-1-|1-1--1-1--1-1-1-1-|1-1-1-1-1-1-1-1-|
A  :-----------------|------------------|----------------|

E  :------------------|-------------------|----------------|
B  :------------------|-------------------|----------------|
G  :------------------|-------------------|----------------|
D  :-3-5-5-5-5-5--5-5-|5-5--5--5--2-2-2-2-|2-2-2-2-2-2-2-2-|
A  :------------------|-------------------|----------------|
E  :-1-3-3-3-3-3--3-3-|3-3--3--3--0-0-0-0-|0-0-0-0-0-0-0-0-|
A  :------------------|-------------------|----------------|

E  :-----------------|-------------------|----------------|
B  :-----------------|-------------------|----------------|
G  :-----------------|-------------------|----------------|
D  :-5-7-7-7-7-7-7-7-|-7-7--7-7--5-7-7-7-|7-7-7-7-7-7-7-7-|
A  :-----------------|-------------------|----------------|
E  :-3-5-5-5-5-5-5-5-|-5-5--5-5--3-5-5-5-|5-5-5-5-5-5-5-5-|
A  :-----------------|-------------------|----------------|

E  :------------------|-------------------|---------------------|
B  :------------------|-------------------|---------------------|
G  :------------------|-------------------|---------------------|
D  :-3-5-5-5-5-5--5-5-|5-5--5--5--3-5-5-5-|-5--5--2-2-2-2--2--2-|
A  :------------------|-------------------|---------------------|
E  :-1-3-3-3-3-3--3-3-|3-3--3--3--1-3-3-3-|-3--3--0-0-0-0--0--0-|
A  :------------------|-------------------|---------------------|

E  :-----------------|------------------|----------------|-----------------|
B  :-----------------|------------------|----------------|-----------------|
G  :-----------------|------------------|----------------|-----------------|
D  :-3-3-3-3-3-3-3-3-|3-3--3-3--3-3-3-3-|3-3-3-3-3-3-3-3-|-3-5-5-5-5-5-5-5-|
A  :-----------------|------------------|----------------|-----------------|
E  :-1-1-1-1-1-1-1-1-|1-1--1-1--1-1-1-1-|1-1-1-1-1-1-1-1-|-1-3-3-3-3-3-3-3-|
A  :-----------------|------------------|----------------|-----------------|

E  :-------------------|-----------------|-----------------|
B  :-------------------|-----------------|-----------------|
G  :-------------------|-----------------|-5-7-7-7-7-7-7-7-|
D  :-5-5--5-5--2-2-2-2-|2-2--2-2-2-2-2-2-|-5-7-7-7-7-7-7-7-|
A  :-------------------|-----------------|-3-5-5-5-5-5-5-5-|
E  :-3-3--3-3--0-0-0-0-|0-0--0-0-0-0-0-0-|-----------------|
A  :-------------------|-----------------|-----------------|

E  :-------------------|------------------|-----------------|
B  :-------------------|------------------|-----------------|
G  :-9----5----5-7-7-7-|7-7-7-7--9----5---|-5-7-7-7-7-7-7-7-|
D  :-9----5----5-7-7-7-|7-7-7-7--9----5---|-5-7-7-7-7-7-7-7-|
A  :-7----3----3-5-5-5-|5-5-5-5--7----3---|-3-5-5-5-5-5-5-5-|
E  :-------------------|------------------|-----------------|
A  :-------------------|------------------|-----------------|

E  :-------------------|------------------|
B  :-------------------|------------------|
G  :-9----5----3-3-3-3-|3-3-3-3--5----3---|
D  :-9----5----3-3-3-3-|3-3-3-3--5----3---|
A  :-7----3----1-1-1-1-|1-1-1-1--3----1---|
E  :-------------------|------------------|
A  :-------------------|------------------|

Bridge:

E  :----------------|-------------------|--------------------|
B  :----------------|-------------------|--------------------|
G  :----------------|-------------------|--------------------|
D  :----------------|-------------------|--------------------|  x2
A  :0---------------|-------------------|--------------------|
E  :0---------------|-------------------|--------------------|
A  :0---------------|-------------------|--------------------|

============================================================================
Bass 
Intro:

G  :----------------|----------------|----------------|----------------|
D  :----------------|----------------|----------------|----------------|
A  :----------------|----------------|----------------|----------------|
E  :----------------|------------3---|----------------|------------3---|
A  :0-0-*-0-0-*-0-0-|*-0-0-*-2-------|0-0-*-0-0-*-0-0-|*-0-0-*-2-------|

G  :----------------|----------------|----------------|----------------|
D  :----------------|----------------|----------------|----------------|
A  :----------------|----------------|----------------|----------------|
E  :----------------|------------3---|----------------|------------3---|
A  :0-0-*-0-0-*-0-0-|*-0-0-*-2-------|0-0-*-0-0-*-0-0-|*-0-0-*-2-------|

Verse:

G  :------------------|-------------------|-------------------|
D  :------------------|-------------------|-------------------|
A  :------------------|-------------------|-------------------|
E  :-3-5-5-5-5-5--5-5-|-5-5--5-5--3-5-5-5-|5-5--5-5--5-5--5-5-|
A  :------------------|-------------------|-------------------|

G  :------------------|------------------|----------------|
D  :------------------|------------------|----------------|
A  :------------------|------------------|----------------|
E  :-3-5-5-5-5-5--5-5-|-5-5-5-5--3-5-5-5-|5-5-3-3-3-3-3-3-|
A  :------------------|------------------|----------------|

G  :------------------|-------------------|-------------------|
D  :------------------|-------------------|-------------------|
A  :------------------|-------------------|-------------------|
E  :-3-5-5-5-5-5--5-5-|-5-5--5-5--3-5-5-5-|5-5--5-5--5-5--5-5-|
A  :------------------|-------------------|-------------------|

G  :------------------|-------------------|-----------------|
D  :------------------|-------------------|-----------------|
A  :------------------|-------------------|-----------------|
E  :-3-5-5-5-5-5--5-5-|-5-5--5-5--3-5-5-5-|5-5--3-3-3-3-3-3-|
A  :------------------|-------------------|-----------------|

G  :-----------------|-------------------|------------------|
D  :-----------------|-------------------|------------------|
A  :-----------------|-------------------|------------------|
E  :-----------------|-0-----------------|---------0--------|
A  :-3-5-5-5-5-5-5-5-|------3----3-5-5-5-|5-5-5-5-------3---|

G  :-----------------|-------------------|------------------|
D  :-----------------|-------------------|------------------|
A  :-----------------|-------------------|------------------|
E  :-----------------|-0-----------------|------------------|
A  :-3-5-5-5-5-5-5-5-|------3----1-1-1-1-|1-1-1-1--3----1---|

G  :-----------------|-------------------|------------------|
D  :-----------------|-------------------|------------------|
A  :-----------------|-------------------|------------------|
E  :-----------------|-------------------|------------------|
A  :-1-1-1-1-1-1-1-1-|-3----1----1-1-1-1-|1-1-1-1--3----1---|

G  :-----------------|-------------------|------------------|
D  :-----------------|-------------------|------------------|
A  :-----------------|-------------------|------------------|
E  :-----------------|-------------------|---------0--------|
A  :-1-1-1-1-1-1-1-1-|-3----1----3-3-3-3-|3-3-3-3-------3---|

Intro Riff Repeat:

G  :----------------|----------------|----------------|----------------|
D  :----------------|----------------|----------------|----------------|
A  :----------------|----------------|----------------|----------------|
E  :----------------|------------3---|----------------|------------3---|
A  :0-0-*-0-0-*-0-0-|*-0-0-*-2-------|0-0-*-0-0-*-0-0-|*-0-0-*-2-------|

G  :----------------|----------------|----------------|----------------|
D  :----------------|----------------|----------------|----------------|
A  :----------------|----------------|----------------|----------------|
E  :----------------|------------3---|----------------|------------3---|
A  :0-0-*-0-0-*-0-0-|*-0-0-*-2-------|0-0-*-0-0-*-0-0-|*-0-0-*-2-------|

2nd Verse:

G  :------------------|-------------------|----------------|
D  :------------------|-------------------|----------------|
A  :------------------|-------------------|----------------|
E  :-3-5-5-5-5-5--5-5-|-5-5--5-5--3-5-5-5-|5-5-5-5-5-5-5-5-|
A  :------------------|-------------------|----------------|

G  :------------------|-------------------|-------------------|
D  :------------------|-------------------|-------------------|
A  :------------------|-------------------|-------------------|
E  :-1-3-3-3-3-3--3-3-|-3-3--3-3--1-3-3-3-|-3--3-0-0-0-0--0-0-|
A  :------------------|-------------------|-------------------|

G  :-----------------|------------------|----------------|
D  :-----------------|------------------|----------------|
A  :-----------------|------------------|----------------|
E  :-1-1-1-1-1-1-1-1-|1-1--1-1--1-1-1-1-|1-1-1-1-1-1-1-1-|
A  :-----------------|------------------|----------------|

G  :------------------|-------------------|----------------|
D  :------------------|-------------------|----------------|
A  :------------------|-------------------|----------------|
E  :-1-3-3-3-3-3--3-3-|3-3--3--3--0-0-0-0-|0-0-0-0-0-0-0-0-|
A  :------------------|-------------------|----------------|

G  :-----------------|-------------------|----------------|
D  :-----------------|-------------------|----------------|
A  :-----------------|-------------------|----------------|
E  :-3-5-5-5-5-5-5-5-|-5-5--5-5--3-5-5-5-|5-5-5-5-5-5-5-5-|
A  :-----------------|-------------------|----------------|

G  :------------------|-------------------|---------------------|
D  :------------------|-------------------|---------------------|
A  :------------------|-------------------|---------------------|
E  :-1-3-3-3-3-3--3-3-|3-3--3--3--1-3-3-3-|-3--3--0-0-0-0--0--0-|
A  :------------------|-------------------|---------------------|

G  :-----------------|------------------|----------------|-----------------|
D  :-----------------|------------------|----------------|-----------------|
A  :-----------------|------------------|----------------|-----------------|
E  :-1-1-1-1-1-1-1-1-|1-1--1-1--1-1-1-1-|1-1-1-1-1-1-1-1-|-1-3-3-3-3-3-3-3-|
A  :-----------------|------------------|----------------|-----------------|

G  :-------------------|-----------------|-----------------|
D  :-------------------|-----------------|-----------------|
A  :-------------------|-----------------|-----------------|
E  :-3-3--3-3--0-0-0-0-|0-0--0-0-0-0-0-0-|-----------------|
A  :-------------------|-----------------|-3-5-5-5-5-5-5-5-|

G  :-------------------|------------------|-----------------|
D  :-------------------|------------------|-----------------|
A  :-------------------|------------------|-----------------|
E  :-0-----------------|---------0--------|-----------------|
A  :------3----3-5-5-5-|5-5-5-5-------3---|-3-5-5-5-5-5-5-5-|

G  :-------------------|------------------|
D  :-------------------|------------------|
A  :-------------------|------------------|
E  :-0-----------------|------------------|
A  :------3----1-1-1-1-|1-1-1-1--3----1---|

Bridge:

G  :----------------|-------------------|--------------------|
D  :----------------|-------------------|--------------------|
A  :----------------|-------------------|--------------------|    x2
E  :----------------|-------------------|--------------------|
A  :0---------------|-------------------|--------------------|

============================================================================

Guitar 2 (Lead)

1st Verse:

E  :------------------|-------------------|-------------------|
B  :------------------|13-----------------|-------------------|
G  :14-----------12---|-------------------|---------14--------|
D  :------------------|-----14---15-------|----14--------11---|
A  :------------------|-------------------|-------------------|
E  :------------------|-------------------|-------------------|
A  :------------------|-------------------|-------------------|

E  :------------------|------------------|----------------|
B  :------------------|------------------|----------------|
G  :------------------|10----------------|----------------|
D  :12-----------10---|-----7---10-------|----9-----------|
A  :------------------|------------------|----------------|
E  :------------------|------------------|----------------|
A  :------------------|------------------|----------------|

E  :------------------|-------------------|-------------------|
B  :------------------|13-----------------|-------------------|
G  :14-----------12---|-------------------|---------14--------|
D  :------------------|-----14---15-------|----14--------11---|
A  :------------------|-------------------|-------------------|
E  :------------------|-------------------|-------------------|
A  :------------------|-------------------|-------------------|

E  :------------------|-------------------|-----------------|
B  :------------------|-------------------|-----------------|
G  :-------------14---|16---17---17-------|----16-----------|
D  :12----------------|-------------------|-----------------|
A  :------------------|-------------------|-----------------|
E  :------------------|-------------------|-----------------|
A  :------------------|-------------------|-----------------|

E  :-----------------|-------------------|------------------|
B  :15---------------|17---13---15-------|--------17---13---|
G  :-----------------|-------------------|------------------|
D  :-----------------|-------------------|------------------|
A  :-----------------|-------------------|------------------|
E  :-----------------|-------------------|------------------|
A  :-----------------|-------------------|------------------|

E  :-----------------|-------------------|------------------|
B  :15---------------|17---18---20-------|--------18---17---|
G  :-----------------|-------------------|------------------|
D  :-----------------|-------------------|------------------|
A  :-----------------|-------------------|------------------|
E  :-----------------|-------------------|------------------|
A  :-----------------|-------------------|------------------|

E  :-----------------|-------------------|------------------|
B  :15---------------|17---13---15-------|--------17---13---|
G  :-----------------|-------------------|------------------|
D  :-----------------|-------------------|------------------|
A  :-----------------|-------------------|------------------|
E  :-----------------|-------------------|------------------|
A  :-----------------|-------------------|------------------|

E  :-----------------|-------------------|------------------|
B  :15---------------|17---18---20-------|--------18---17---|
G  :-----------------|-------------------|------------------|
D  :-----------------|-------------------|------------------|
A  :-----------------|-------------------|------------------|
E  :-----------------|-------------------|------------------|
A  :-----------------|-------------------|------------------|

2nd Verse:

E  :------------------|-------------------|----------------|
B  :------------------|13-----------------|----------------|
G  :14-----------12---|-------------------|----------------|
D  :------------------|-----14---15-------|----------------|
A  :------------------|-------------------|----------------|
E  :------------------|-------------------|----------------|
A  :------------------|-------------------|----------------|

E  :------------------|-------------------|-------------------|
B  :------------------|-------------------|-------------------|
G  :12----------------|-------------------|12-10-9-------10-9-|
D  :-------------12---|14---15---15-------|-------------------|
A  :------------------|-------------------|-------------------|
E  :------------------|-------------------|-------------------|
A  :------------------|-------------------|-------------------|

E  :-----------------|------------------|----------------|
B  :-----------------|------------------|----------------|
G  :-----------------|---------10-------|----------------|
D  :10-----------9---|----10------------|----------------|
A  :-----------------|------------------|----------------|
E  :-----------------|------------------|----------------|
A  :-----------------|------------------|----------------|

E  :------------------|-------------------|----------------|
B  :------------------|-------------------|----------------|
G  :12----------------|-------------------|----------------|
D  :-------------12---|----14-12-14-------|----------------|
A  :------------------|-------------------|----------------|
E  :------------------|-------------------|----------------|
A  :------------------|-------------------|----------------|

E  :-----------------|-------------------|----------------|
B  :-----------------|-------------------|----------------|
G  :14---------------|16---17------------|----------------|
D  :-----------------|----------15-------|----------------|
A  :-----------------|-------------------|----------------|
E  :-----------------|-------------------|----------------|
A  :-----------------|-------------------|----------------|

E  :------------------|-------------------|---------------------|
B  :------------------|-------------------|---------------------|
G  :12----------------|-------------------|---------------------|
D  :-------------12---|----14-12-14-------|15-14-12-------14-12-|
A  :------------------|-------------------|---------------------|
E  :------------------|-------------------|---------------------|
A  :------------------|-------------------|---------------------|

E  :-----------------|------------------|----------------|-----------------|
B  :-----------------|------------------|----------------|-----------------|
G  :-----------------|---------10-------|----------------|12---------------|
D  :10-----------9---|----10------------|----------------|-----------------|
A  :-----------------|------------------|----------------|-----------------|
E  :-----------------|------------------|----------------|-----------------|
A  :-----------------|------------------|----------------|-----------------|

E  :-------------------|-----------------|-----------------|
B  :10---12---13-------|----12-----------|15---------------|
G  :-------------------|-----------------|-----------------|
D  :-------------------|-----------------|-----------------|
A  :-------------------|-----------------|-----------------|
E  :-------------------|-----------------|-----------------|
A  :-------------------|-----------------|-----------------|

E  :-------------------|------------------|-----------------|
B  :17---13---15-------|--------17---13---|15---------------|
G  :-------------------|------------------|-----------------|
D  :-------------------|------------------|-----------------|
A  :-------------------|------------------|-----------------|
E  :-------------------|------------------|-----------------|
A  :-------------------|------------------|-----------------|

E  :-------------------|------------------|
B  :17---18---20-------|--------18---17---|
G  :-------------------|------------------|
D  :-------------------|------------------|
A  :-------------------|------------------|
E  :-------------------|------------------|
A  :-------------------|------------------|

Bridge:

Lead 1:

E-----------------|----------------|-------------------|--------------------|-----------------|
B------------10---|-----8----------|-------------------|--------------------|-----------------|
G-----------------|----------------|----10-------12-10-|-9--------10-9--7---|---9-7--5--------|
D-----------------|----------------|-------------------|--------------------|-----------------|
A-----------------|----------------|-------------------|--------------------|-----------------|
E-----------------|----------------|-------------------|--------------------|-----------------|
A-----------------|----------------|-------------------|--------------------|-----------------|

E-----------------|----------------|-------------------|--------------------|-----------------|
B------------10---|-----8----------|-------------------|--------------------|-----------------|
G-----------------|----------------|----10-------12-10-|-9--------10-9--7---|---9-10-12-------|
D-----------------|----------------|-------------------|--------------------|-----------------|
A-----------------|----------------|-------------------|--------------------|-----------------|
E-----------------|----------------|-------------------|--------------------|-----------------|
A-----------------|----------------|-------------------|--------------------|-----------------|

This section repeats again as Lead 2 changes.

Lead 2:

E-------------------|12---10---15---12---|10---15---12---10---|15---12-------------|----------|
B-------------------|--------------------|--------------------|--12---15---|13-*--------------|
G-------------------|--------------------|--------------------|--------------------|----------|
D-------------------|--------------------|--------------------|--------------------|----------|
A-------------------|--------------------|--------------------|--------------------|----------|
E-------------------|--------------------|--------------------|--------------------|----------|
A-------------------|--------------------|--------------------|--------------------|----------|

(x2)^

E----------------|-------------------|7---8---10---8---|7-------7---8---|
B----------------|-------------------|-----------------|----8-----------|
G----------------|-------------------|-----------------|----------------|
D----------------|-------------------|-----------------|----------------|
A----------------|-------------------|-----------------|----------------|
E----------------|-------------------|-----------------|----------------|
A----------------|-------------------|-----------------|----------------|

E:10---8---7-------|7---8---10----8---|7-------7---8---|
B:-------------8---|------------------|----8-----------|
G:-----------------|------------------|----------------|
D:-----------------|------------------|----------------|
A:-----------------|------------------|----------------|
E:-----------------|------------------|----------------|
A:-----------------|------------------|----------------|

E  :10----8---7---------|7---8---10---13-12-|10-0-12-10--8-0-10-8-|
B  :---------------8----|-------------------|---------------------|
G  :--------------------|-------------------|---------------------|
D  :--------------------|-------------------|---------------------|
A  :--------------------|-------------------|---------------------|
E  :--------------------|-------------------|---------------------|
A  :--------------------|-------------------|---------------------|

E  :7-0-8-7-5-0-7-5-|3-0--5-*---------|--------------------|
B  :----------------|-----------------|--------------------|
G  :----------------|-----------------|--------------------|
D  :----------------|-----------------|--------------------|
A  :----------------|-----------------|--------------------|
E  :----------------|-----------------|--------------------|
A  :----------------|-----------------|--------------------|

Lead for Ending:


E  :------------------|------------------|--------------------|
B  :--------12---13---|15----------------|13---15---17--------|
G  :------------------|-----12-----------|---------------14---|
D  :------------------|------------------|--------------------|
A  :------------------|------------------|--------------------|
E  :------------------|------------------|--------------------|
A  :------------------|------------------|--------------------|


E  :-----------------|-----------------|--------------------|
B  :-----------------|----10-----------|10---12---13--------|
G  :--------13-------|-----------------|---------------10---|
D  :-----------------|-----------------|--------------------|
A  :-----------------|-----------------|--------------------|
E  :-----------------|-----------------|--------------------|
A  :-----------------|-----------------|--------------------|

E  :------------------|------------------|--------------------|
B  :--------12---13---|15----------------|13---15---17--------|
G  :------------------|-----12-----------|---------------14---|
D  :------------------|------------------|--------------------|
A  :------------------|------------------|--------------------|
E  :------------------|------------------|--------------------|
A  :------------------|------------------|--------------------|

E  :-----------------|-----------------|-------------------|
B  :-----------------|-----------------|-------------------|
G  :--------13-------|----14-----------|----16---12---14---|
D  :-----------------|-----------------|-------------------|
A  :-----------------|-----------------|-------------------|
E  :-----------------|-----------------|-------------------|
A  :-----------------|-----------------|-------------------|

E  :-----------------|------------------|------------------|
B  :-----------------|------------------|------------------|
G  :--------------16-|--12---14---------|--------16---17---|
D  :-----------------|------------------|------------------|
A  :-----------------|------------------|------------------|
E  :-----------------|------------------|------------------|
A  :-----------------|------------------|------------------|

E  :-----------------|-------------------|------------------|
B  :-----------------|-------------------|------------------|
G  :19---------------|17---16---14-------|--------16---12---|
D  :-----------------|-------------------|------------------|
A  :-----------------|-------------------|------------------|
E  :-----------------|-------------------|------------------|
A  :-----------------|-------------------|------------------|

E  :-----------------|-------------------|-----------------|
B  :-----------------|-------------------|-----------------|
G  :14---------------|--16---12---14-----|------------16---|
D  :-----------------|-------------------|-----------------|
A  :-----------------|-------------------|-----------------|
E  :-----------------|-------------------|-----------------|
A  :-----------------|-------------------|-----------------|

E  :------------------|------------------|
B  :------------------|------------------|
G  :17---19-----------|----17---16-*-----|
D  :------------------|------------------|
A  :------------------|------------------|
E  :------------------|------------------|
A  :------------------|------------------|
Login or Register to remove this ad.