Ads

Inner Goldfield (Metal Slug 6) Guitar Tab

Submitted: Apr 02, 2012 by LynyrdSkynyrd4

5
Average: 5 (1 vote)
Download | Listen
Game: Metal Slug 6
Composer(s): Manabu Namiki, Mitsuhiro Kaneda
Style: Alternate picking, Transcription
Series: Metal Slug

This song is also called Big Bad Boss

AutoScroll: Slow | Medium | Fast
h - hammer on
 p - pull off
 / - slide
 b - bend


e|--------------------------------------
B|--------------------------------------
G|--------------------------------------
D|--3---4--5------3---4--5------3---4--5 x2
A|--1---2--3------1---2--3------1---2--3
E|--------------------------------------

  

  (0:09)
  ------11p10-8h10-10h11p10------------------------
  -8h11---------------------11-10h11-11/13---------
  -----------------------------------------10/12-10
  -------------------------------------------------
  -------------------------------------------------
  -------------------------------------------------

  
  (0:13)
  ------------------------------------
  -11-11-10-11----13p11---------------
  -------------12-------10------------
  -------------------------13p12p10---
  ----------------------------------13
  ------------------------------------

  
  (0:17)
  -------------------------6---6h8p6p5h6
  -----------------------8--------------
  -7h8---7-------8h10-7------7----------
  -----8------10------------------------
  --------------------------------------
  --------------------------------------

  
  (0:20)
  -----------------8-10--8-----------11-13-15--16
  ----------11--------------11-8--9--------------
  ----10-------12--------------------------------
  -12----12--------------------------------------
  -----------------------------------------------
  -----------------------------------------------

  * Play the sequence above 2 times


  (0:39)
  -------------13h15-----13p11--14-----13p11--13-----11p10h11p10------
  ---------------------------------------------------------------11/13
  -------15p12--------------------------------------------------------
  -15p12--------------------------------------------------------------
  --------------------------------------------------------------------
  --------------------------------------------------------------------

  
  (0:45)
  -------------13h15-----13p11--14-----13p11--13--------------------b18
  ---------------------------------------------------16p15h16p15-16----
  -------15p12---------------------------------------------------------
  -15p12---------------------------------------------------------------
  ---------------------------------------------------------------------
  ---------------------------------------------------------------------

  
 
  
  (0:53) Solo
  -------------------------------------------------------------15--12---------------------
  -b15--13------------------13----15---16--15--13----17--13-----------13---13-15-16--15-13
  ---------14--14-12----/14----14---------------------------14----------------------------
  ----------------------------------------------------------------------------------------
  ----------------------------------------------------------------------------------------
  ----------------------------------------------------------------------------------------

  ----------------------
  ----13----------------
  -14-----14p13p12------
  -----------------15p14
  ----------------------
  ----------------------

  
  (1:00)
  ------------8h10---8\7----------------------10--12-10---------
  ---8---10p8------------8-------8---10/12-10-----------12h13---
  -9---9-------------------7-------9--------------------------12
  --------------------------------------------------------------
  --------------------------------------------------------------
  --------------------------------------------------------------

  
  (1:04)
  --------10--12-10----/12--15--12------------------
  -12p10---------------------------13--16--15--13h15
  --------------------------------------------------
  --------------------------------------------------
  --------------------------------------------------
  --------------------------------------------------

  
  (1:08)
  -------------------------------------------------
  -------------------------------------------------
  -16-16-16--14h16--------16-16-16--14h16-16/19--16
  -----------------14------------------------------
  -------------------------------------------------
  -------------------------------------------------

  
  (1:11)
  -----14----19p17p14----14----------------------------------------
  -15-----15----------15-------15----------------------------------
  --------------------------16----14h16----------------------------
  ---------------------------------------16-15p14------------------
  ------------------------------------------------17p14----14h16h17
  ------------------------------------------------------17---------

  
  (1;15)
  -/14--12---------------------------------
  ----------14-13/14---13--12-----14-------
  -----------------------------14----11--9~
  -----------------------------------------
  -----------------------------------------
  -----------------------------------------

  
  
  
  (1;18) *Strum fast
  -0-3-5-6-5-3-0-3-5-6-5-3-0-3-5-6-5-3-0
  --------------------------------------
  --------------------------------------
  --------------------------------------
  --------------------------------------
  --------------------------------------
Login or Register to remove this ad.