Final Attack (Metal Slug 5) Guitar Tab

Submitted: Apr 24, 2012 by LynyrdSkynyrd4

5
Average: 5 (1 vote)
Download | Listen
Game: Metal Slug 5
Composer(s): Toshikazu Tanaka
Style: Alternate picking, Transcription
Series: Metal Slug

AutoScroll: Slow | Medium | Fast
  h - hammer on
  p - pull off
  / - slide
  . - palm mute



e|10-------10--10--10--11
B|10-------10--10--10--11
G|7--------7---7---7---8-
D|-----------------------
A|-----------------------
E|-----------------------

  ---------------------------------------------
  -13-14-15--------13--12----------------------
  ----------------------------15-------15-15-16
  -----------12-------------------12-----------
  ---------------------------------------------
  ---------------------------------------------

  ------------------------------------------------
  ----------------------------------------------13
  -------------14----12h14------------------12----
  -12----11h12-------------15---15--14--15--------
  ------------------------------------------------
  ------------------------------------------------

  ---------------------------------------------------14
  -12h13-------------16----15h16-12---12--11--12/14----
  -------13----12h13-----------------------------------
  -----------------------------------------------------
  -----------------------------------------------------
  -----------------------------------------------------

  
  
  *Really got to feel out this pattern
  ---------------------------------------------------------
  ---------------------------------------------------------
  ---------------------------------------------------------
  --------------------------------------------------------- x2
  -4--4-4-4--4-4-4-4-4--4-4-4--4--4-4-4--4-4-4-4-4-4--4-4-4
  -2--2-2-2--2-2-2-2-2--2-2-2--2--2-2-2--2-2-2-2-2-2--2-2-2
   .  . . .  . . . . .  . . .  .  . . .  . . . . . .  . . .

  
 
  ------------------------------
  ------------------------------
  ---3h5p3-5/8--------8--7--5--8
  -3------------------6--5--3--6
  ------------------------------
  ------------------------------

  --------------------------------
  --------------------------------
  ---6h8p6-8/11------11--10--8--11
  -6-----------------9---8---6--9-
  --------------------------------
  --------------------------------

  --------------------------------------------------------------------
  -----------------------------------9-9-9---9-9-9---9-9-9-8-9---9-9-9
  ---9h11p9-11/14------14--13--11------------------------------8------
  -9-------------------12--11--9--------------------------------------
  --------------------------------------------------------------------
  --------------------------------------------------------------------

  -17-------15-------13-----------------------------------------------------------
  ----15-------13-------11--------------------------------------9-----------------
  -------14-------12-------10--9------9-9-9-9-7h9-------/10--9---------9-9-9-9-7h9
  --------------------------------------------------------------------------------
  --------------------------------------------------------------------------------
  --------------------------------------------------------------------------------

  -----------------------------------------
  ---------------------------------------12
  /10--9-------9-9-9-9-7h9-------/10--9----
  -----------------------------------------
  -----------------------------------------
  -----------------------------------------

  ------------------------------------------------
  ------------------------------------------------
  -7-----7/10------9--10--9------------------12/14
  ----5----------------------12--10--12-----------
  ---------------------------------------10-------
  ------------------------------------------------      

  ------------------------------
  ------------------------------
  -9--12--10--------------------
  ------------10\8--11-----11/14
  ----------------------9-------
  ------------------------------
  
  -----------------------------------------------------
  ---------------------------------------------------12
  -8--9--8-------------------------------13------------
  ----------11--9--11-----11/14--------------11--14----
  ---------------------9---------11--12----------------
  -----------------------------------------------------

  --------------------------------------------------------------------
  -11--12--13---16--14-------------------------13--14--15---18--16----
  ---------------------------------12--13--15-------------------------
  ----------------------15-----15-----------------------------------17
  --------------------------------------------------------------------
  --------------------------------------------------------------------

  -------------------------------------------------------------------
  -----------------15--16--17--------------------------------14h15---
  -----14--15--17--------------16p15h16-------------12h14h16-------16
  -17-----------------------------------14p13h14h16------------------
  -------------------------------------------------------------------
  -------------------------------------------------------------------

  ----------------------------------------------------------------------------------
  -19-------------------------------16h17---------21---------------------21--19--22~
  ----18p17h18-------------14h16h18-------18---------20p19h20-----------------------
  -------------16p15h16h18------------------------------------18p17h18--------------
  ----------------------------------------------------------------------------------
  ----------------------------------------------------------------------------------
  




  




Login or Register to remove this ad.