Ads

Peace Walker (Metal Gear Solid V) Guitar Tab

Submitted: May 07, 2017 by Peacewalker

0
Download | Listen
Game: Metal Gear Solid V
Composer(s): Harry Gregson-Williams, Ludvig Forssell, Justin Burnett
Style: Transcription
Series: Metal Gear

This song is also called Deployment Theme

AutoScroll: Slow | Medium | Fast
   Title: 	Peacewalker Theme / Deployment Theme
    Game:	Metal Gear Solid: Peacewalker / Metal Gear Solid V
Composer:	Akihiro Honda
  Tabber:	Alessandro "Peacewalker" Barbè
    Date:	03/25/17

Tempo = 200	T/S = 4/4

E||---------|---------|---------|---------|
B||---------|---------|---------|---------|
G||---------|---------|---------|---------|
D||-5-------|-----8-7-|-5-------|-----8---|
A||---------|---------|---------|---------|
E||---------|---------|---------|---------|

E||---------|---------|---------|---------|---------|
B||---------|---------|---------|---------|---------|
G||---------|---------|-5-------|---------|---------|
D||---------|-----8---|---------|---------|-5-------|
A||-8-------|---------|---------|---------|---------|
E||---------|---------|---------|---------|---------|

E||---------|---------|---------|---------|
B||---------|---------|---------|---------|
G||---------|---------|-------5-|-7-------|
D||-----8-7-|-5-------|-----8---|---------|
A||---------|---------|---------|---------|
E||---------|---------|---------|---------|

E||---------|---------|---------|---------|-----------|
B||---------|---------|---------|-8-------|-----11-10-|
G||---------|-5-------|---------|---------|-----------|
D||-----8---|---------|---------|---------|-----------|
A||---------|---------|---------|---------|-----------|
E||---------|---------|---------|---------|-----------|

E||---------|----------|----------|---------10-|-8-------|
B||-8-------|-----11---|----------|---11-11----|---------|
G||---------|----------|-10-------|------------|---------|
D||---------|----------|----------|------------|---------|
A||---------|----------|----------|------------|---------|
E||---------|----------|----------|------------|---------|

E||---------|---------|-----------|---------|--------8-|
B||---------|-8-------|-----11-10-|-8-------|-----11---|
G||---------|---------|-----------|---------|----------|
D||---------|---------|-----------|---------|----------|
A||---------|---------|-----------|---------|----------|
E||---------|---------|-----------|---------|----------|

E||-10-------|---13-13-10-|-8-------|---------||
B||----------|------------|---------|---------||
G||----------|------------|---------|---------||
D||----------|------------|---------|---------||
A||----------|------------|---------|---------||
E||----------|------------|---------|---------||
Login or Register to remove this ad.