Fire Man (Mega Man) Guitar Tab

Submitted: Dec 06, 2014 by ltm_1988

0
Download | Listen
Game: Mega Man
Composer(s): Yoshihiro Sakaguchi, Manami Matsumae
Style: Arrangement, Fingerstyle
Series: Mega Man

AutoScroll: Slow | Medium | Fast
Fire Man
Mega Man
Manami Matsumae
ltm_1988
12/6/2014

    E   S E   S S S S S S S S S S S   E   S E   S S S S S S S S E   S
E||---------------------------------|---------------------------------|
B||---------------------------------|---------------------------------|
G||-----2-------2-------2-------2---|-----2-------2-------2-----------|
D||-----4-------4-------4-------4---|-----4-------4-------4-----------|
A||---------------------------------|-------------------------4-------|
E||-2-----1---1---0-0-0---1-1-1---1-|-2-----1---1---0-0-0---1-1-1---1-|

    E   S E   S S S S S S S S E   S   E.    E   E   S S E   S S E   S
E||---------------------------------|---------------------------------|
B||---------------------------------|---------------------------------|
G||*--------------------------------|---------------------------------|
D||*4~--4~------4~--2-4-4-2---------|---------------------------------|
A||---------------------------4---2-|-4~----------------------4-------|
E||-2-----1---1---0-0-0---1-1-1---1-|-2-----1---1---0-0-0---1-1-1---1-|

    E   S E   S S S S S S S S S S S   E.    E   E   S Q       Q
E||---------------------------------|---------------------------------|
B||---------------------------------|---------------------------------|
G||-----------------------1---------|---------------------------------|
D||-4~--4~------4~--2-4-4-----4-4-2-|-4~--------------3\-----\11------|
A||---------------------------------|---------------------------------|
E||-2-----1---1---0-0-0---1-1-1---1-|-2-----1---1---0-0-------13------|

    E   S E   S S S S S S S S S S S   E   S E   S S S S S S S S S S S
E||-2~--------------0-2---0---------|---------------------------------|
B||---------------------------2---0-|-2~----------------------2-------|
G||---------------------------------|---------------------------------|
D||-----4-------4-------4-------4---|-----4-------4-------4-------4---|
A||---------------------------------|---------------------------------|
E||-2-----1---1---0-0-0---1-1-1---1-|-2-----1---1---0-0-0---1-1-1---1-|

    E   S E   S S S S S S S S S S S   E   S E   S S S S S S S S S S S
E||-2~--------------0-2---4---2---0-|-2~------------------------------|
B||---------------------------------|---------------------------------|
G||---------------------------------|---------------------------------|
D||-----4-------4-------4-------4---|-----4-------4-------4-------4---|
A||---------------------------------|---------------------------------|
E||-2-----1---1---0-0-0---1-1-1---1-|-2-----1---1---0-0-0---1-1-1---1-|

    E   E.    S S S E   E   E   E     E   E.    S S S E   E   E   E
E||---------------------------------|---------------------------------|
B||-3~----------2---0-----------0---|-2~----------0-------------------|
G||---------------------1---2-------|-----------------2-------1---2---|
D||-----------------2---------------|-----------------0---4---0-------|
A||-2---2-----2---2-----------------|-0---0-----0---0-----------------|
E||-------------------------0-------|---------------------------------|

    E   E.    S S S E   E   E   E     S E   Q       S S E   Q       S
E||---------------------------------|---------------------------------|
B||---------------------------------|-------------------1---2~--------|
G||-4~----------2---1-----------1---|---2---4~------------------------|
D||---------------------3---4-------|---------------------------------|
A||-----------------4-------3-------|---------------------------------|
E||-4---4-----4---4-----------------|-2---------------2---------------|

    E   E.    S S S E   E   S S E     E   E.    S S S E   E   S S E
E||-------------------------0-------|---------------------------------|
B||-3~----------2---0---------3-----|-2~----------0-----------3-2-----|
G||---------------------1-------1---|-----------------2---------------|
D||-----------------2-------4-------|-----------------0---4---2---4---|
A||-2---2-----2---2-----------------|-0---0-----0---0-----------------|
E||---------------------------------|---------------------------------|

    E   E.    S S S E   E.    S S S   S E   Q       S E   E   S E.    x3 W
E||---------------------------------|-------------------------0-1-----||-2-
B||---------------0-1~------------1-|---2---3~--------3---4-----------||-2-
G||-4~----------2---------------3---|--------------------------------*||-2-
D||---------------------------------|--------------------------------*||-4-
A||---------------------------------|-4---------------4---------------||-4-
E||-4---4-----4---4-4---4-----4---4-|---------------------------------||-2-
Login or Register to remove this ad.