Ads

VS Lumine ~ The Second Form (Mega Man X8) Bass/Guitar Tab

Submitted: Dec 02, 2012 by ChelseaRare

5
Average: 5 (3 votes)
Download | Listen
Game: Mega Man X8
Composer(s): Yuko Komiyama, Shinya Okada, Naoto Tanaka
Style: 2 or more instruments, Transcription
Series: Mega Man

AutoScroll: Slow | Medium | Fast
Mega Man X8
VS Lumine - The Second Form
Composed by Yuko Komiyama and Akemi Kimura
Tabbed by Chelsea Intal

All guitars standard tuning - EADGBe
Bass standard tuning - EADG

Initial Tempo - 150 BPM

Guitar 1
          PM     PM     PM     PM    PM    PM        PM     PM     PM     PM    PM    PM 
      E   S  E   S  E   S  E   S  S  S  S  S     E   S  E   S  E   S  E   S  S  S  S  S  
E||------------------------------------------|------------------------------------------|
B||--11-----10-----11-----10-----13----10----|--11-----10-----11-----10-----13----10----|
G||------------------------------------------|------------------------------------------|
D||------12-----12-----12-----12----12----12-|------12-----12-----12-----12----12----12-|
A||------------------------------------------|------------------------------------------|
E||------------------------------------------|------------------------------------------|


       PM     PM     PM     PM    PM    PM                        
   E   S  E   S  E   S  E   S  S  S  S  S     H         H         
------------------------------------------|----------------------|
--11-----10-----11-----10-----13----10----|----------------------|
------------------------------------------|------------10--------|
------12-----12-----12-----12----12----12-|--13------------------|
------------------------------------------|----------------------|
------------------------------------------|----------------------|


          PM     PM     PM     PM    PM    PM        PM     PM     PM     PM    PM    PM 
      E   S  E   S  E   S  E   S  S  S  S  S     E   S  E   S  E   S  E   S  S  S  S  S  
E||------------------------------------------|------------------------------------------|
B||--11-----10-----11-----10-----13----10----|--11-----10-----11-----10-----13----10----|
G||------------------------------------------|------------------------------------------|
D||------12-----12-----12-----12----12----12-|------12-----12-----12-----12----12----12-|
A||------------------------------------------|------------------------------------------|
E||------------------------------------------|------------------------------------------|



       PM     PM     PM     PM    PM    PM                        
   E   S  E   S  E   S  E   S  S  S  S  S     H         H         
------------------------------------------|----------------------|
--11-----10-----11-----10-----13----10----|----------------------|
------------------------------------------|------------10--------|
------12-----12-----12-----12----12----12-|--13------------------|
------------------------------------------|----------------------|
------------------------------------------|----------------------|


   Q    Q     S  S  S  S  S  S  S  S     Q.      Q.      E   E   
-------------------------------------|--------------------------|
-------------------------------------|--11------13------11------|
--12---------------------------12-14-|----------------------14--|
-------------------12----12-15-------|--------------------------|
-------------13-15----15-------------|--------------------------|
-------------------------------------|--------------------------|


   Q.      Q.      Q        H        H         
------------------------|---------------------|
------------------------|---------------------|
--14--------------12----|---L-----------------|
----------15------------|---------------------|
------------------------|---------------------|
------------------------|---------------------|


   Q    Q     S  S  S  S  S  S  S  S     Q.      Q.      Q     
-------------------------------------|------------------------|
-------------------------------------|--11--------------11----|
--12---------------------------12-14-|----------14------------|
-------------------12----12-15-------|------------------------|
-------------13-15----15-------------|------------------------|
-------------------------------------|------------------------|


   Q.      Q.      Q        Q    S Q.     S  Q        W                 
----------13------11----|-------------------------|--------------------|
--13--------------------|--15----L----------------|--11----------------|
------------------------|-------------------14----|--------------------|
------------------------|-------------------------|--------------------|
------------------------|-------------------------|--------------------|
------------------------|-------------------------|--------------------|


  E   E   E   E   E.   E.   E      Q.      Q.      Q     
-------------------------------|------------------11----|
----------------------10---11--|--10------13------------|
-------------12--12------------|------------------------|
---------12--------------------|------------------------|
-----10------------------------|------------------------|
-------------------------------|------------------------|


   Q.      H        E      E.   E.   E   Q     E   E   
--11------10-----------|------------------------------|
-----------------------|-------10---11--------10--11--|
-----------------------|--12------------12------------|
-----------------------|------------------------------|
-----------------------|------------------------------|
-----------------------|------------------------------|


   E.   E.   E   E.   E.   E      Q.      Q.      Q     
------------------------------|--10--------------13----|
--13---11---13--10---11---13--|----------13------------|
------------------------------|------------------------|
------------------------------|------------------------|
------------------------------|------------------------|
------------------------------|------------------------|


               |-----3-----|                                      
   Q    S E.   Q     Q     Q        H.                            
--10----L-----------10----13----|--15------------|---------------|
--------------13----------------|----------------|---------------|
--------------------------------|----------------|---------------|
--------------------------------|----------------|---------------|
--------------------------------|----------------|---------------|
--------------------------------|----------------|---------------|


---------------|---------------|---------------|---------------|---------------|
---------------|---------------|---------------|---------------|---------------|
---------------|---------------|---------------|---------------|---------------|
---------------|---------------|---------------|---------------|---------------|
---------------|---------------|---------------|---------------|---------------|
---------------|---------------|---------------|---------------|---------------|

               
                       PM     PM     PM     PM    PM    PM 
                   E   S  E   S  E   S  E   S  S  S  S  S  
---------------|------------------------------------------|
---------------|--11-----10-----11-----10-----13----10----|
---------------|------------------------------------------|
---------------|------12-----12-----12-----12----12----12-|
---------------|------------------------------------------|
---------------|------------------------------------------|


       PM     PM     PM     PM    PM    PM 
   E   S  E   S  E   S  E   S  S  S  S  S  
------------------------------------------|
--11-----10-----11-----10-----13----10----|
------------------------------------------|
------12-----12-----12-----12----12----12-|
------------------------------------------|
------------------------------------------|


       PM     PM     PM     PM    PM    PM                        
   E   S  E   S  E   S  E   S  S  S  S  S     H         H         
------------------------------------------|----------------------|
--11-----10-----11-----10-----13----10----|----------------------|
------------------------------------------|------------10--------|
------12-----12-----12-----12----12----12-|--13------------------|
------------------------------------------|----------------------|
------------------------------------------|----------------------|


          PM     PM     PM     PM    PM    PM        PM     PM     PM     PM    PM    PM 
      E   S  E   S  E   S  E   S  S  S  S  S     E   S  E   S  E   S  E   S  S  S  S  S  
E||------------------------------------------|------------------------------------------|
B||--11-----10-----11-----10-----13----10----|--11-----10-----11-----10-----13----10----|
G||------------------------------------------|------------------------------------------|
D||------12-----12-----12-----12----12----12-|------12-----12-----12-----12----12----12-|
A||------------------------------------------|------------------------------------------|
E||------------------------------------------|------------------------------------------|



       PM     PM     PM     PM    PM    PM                        
   E   S  E   S  E   S  E   S  S  S  S  S     H         H         
------------------------------------------|----------------------|
--11-----10-----11-----10-----13----10----|----------------------|
------------------------------------------|------------10--------|
------12-----12-----12-----12----12----12-|--13------------------|
------------------------------------------|----------------------|
------------------------------------------|----------------------|


---------------|---------------|---------------|---------------|
---------------|---------------|---------------|---------------|
---------------|---------------|---------------|---------------|
---------------|---------------|---------------|---------------|
---------------|---------------|---------------|---------------|
---------------|---------------|---------------|---------------|


          PM     PM     PM     PM    PM    PM        PM     PM     PM     PM    PM    PM 
      E   S  E   S  E   S  E   S  S  S  S  S     E   S  E   S  E   S  E   S  S  S  S  S  
E||------------------------------------------|------------------------------------------|
B||--11-----10-----11-----10-----13----10----|--11-----10-----11-----10-----13----10----|
G||------------------------------------------|------------------------------------------|
D||------12-----12-----12-----12----12----12-|------12-----12-----12-----12----12----12-|
A||------------------------------------------|------------------------------------------|
E||------------------------------------------|------------------------------------------|



          PM     PM     PM     PM    PM    PM        PM     PM     PM     PM    PM    PM 
      E   S  E   S  E   S  E   S  S  S  S  S     E   S  E   S  E   S  E   S  S  S  S  S  
E||------------------------------------------|------------------------------------------|
B||--11-----10-----11-----10-----13----10----|--11-----10-----11-----10-----13----10----|
G||------------------------------------------|------------------------------------------|
D||------12-----12-----12-----12----12----12-|------12-----12-----12-----12----12----12-|
A||------------------------------------------|------------------------------------------|
E||------------------------------------------|------------------------------------------|


          PM     PM     PM     PM    PM    PM        PM     PM     PM     PM    PM    PM 
      E   S  E   S  E   S  E   S  S  S  S  S     E   S  E   S  E   S  E   S  S  S  S  S  
E||------------------------------------------|------------------------------------------||
B||--11-----10-----11-----10-----13----10----|--11-----10-----11-----10-----13----10----||
G||------------------------------------------|------------------------------------------||
D||------12-----12-----12-----12----12----12-|------12-----12-----12-----12----12----12-||
A||------------------------------------------|------------------------------------------||
E||------------------------------------------|------------------------------------------||


Guitar 2
E||-------|-------|-------|-------|-------|-------|-------|-------|-------|
B||-------|-------|-------|-------|-------|-------|-------|-------|-------|
G||-------|-------|-------|-------|-------|-------|-------|-------|-------|
D||-------|-------|-------|-------|-------|-------|-------|-------|-------|
A||-------|-------|-------|-------|-------|-------|-------|-------|-------|
E||-------|-------|-------|-------|-------|-------|-------|-------|-------|


                                                  Q    S Q.     S  Q     
-------|-------|-------|-------|-------|-------|------------------------|
-------|-------|-------|-------|-------|-------|------------------------|
-------|-------|-------|-------|-------|-------|------------------10----|
-------|-------|-------|-------|-------|-------|------------------------|
-------|-------|-------|-------|-------|-------|------------------------|
-------|-------|-------|-------|-------|-------|------------------------|


   W                   E   E   E   E   E.   E.   E      Q.      Q.      Q     
--------------------|-------------------------------|------------------------|
--------------------|-------------------------------|----------10------10----|
--12----------------|---------------------------12--|--10--------------------|
--------------------|-----------------12---12-------|------------------------|
--------------------|-----13--13--13----------------|------------------------|
--------------------|-------------------------------|------------------------|


   Q.      H        E     E.   E.  E  Q    E  E      E.  E.   E   E.   E.   E   
-----------------------|-------------------------|-----------------------------|
--13------11-----------|-----------8-------6--8--|--10---8---10------------10--|
-----------------------|--8---10------8----------|---------------10---12-------|
-----------------------|-------------------------|-----------------------------|
-----------------------|-------------------------|-----------------------------|
-----------------------|-------------------------|-----------------------------|


                                        |----3----|       -----   -----   ----- 
   Q.      Q.      Q        Q    S E.   Q    Q    Q                             
------------------------|--------L---------------------|-------|-------|-------|
----------10------13----|--10----L---------------------|-------|-------|-------|
--11--------------------|--------------11--------------|-------|-------|-------|
------------------------|------------------------------|-------|-------|-------|
------------------------|------------------------------|-------|-------|-------|
------------------------|------------------------------|-------|-------|-------|


  H        E   T  T  T  T     Q.      Q     E      Q    E   Q     E   
--------------------------|--------------------|---------------------|
--------------------------|--11------10----11--|---------------------|
-----------------------12-|--------------------|--12-------10----12--|
--------------------12----|--------------------|---------------------|
--------------10-13-------|--------------------|---------------------|
--------------------------|--------------------|---------------------|


   E   E   E   E   E   E      E   E   E   E   E   E      W                 
--------------------------|--------------10--11--13--|--10----------------|
--------------11--10--11--|--13--11--13--------------|--------------------|
------10--12--------------|--------------------------|--------------------|
--12----------------------|--------------------------|--------------------|
--------------------------|--------------------------|--------------------|
--------------------------|--------------------------|--------------------|


  H        E   Q     E      H        H           H         E.   E.   E   
--L--------L--13----15--|--15-----------------|-----------18---17---18--|
------------------------|---------------------|-------------------------|
------------------------|---------------------|-------------------------|
------------------------|---------------------|-------------------------|
------------------------|---------------------|-------------------------|
------------------------|---------------------|-------------------------|


   Q.      Q.      Q       Q.     Q     E   E   E      H.           Q     
--17------15-------L----|--L------L----10--13--15--|--15-----------------|
------------------------|--------------------------|---------------------|
------------------------|--------------------------|---------------------|
------------------------|--------------------------|---------------------|
------------------------|--------------------------|---------------------|
------------------------|--------------------------|---------------------|


  H         E.   E.   E      Q    H.              Q.      S  S  E.   E.   E   
-----------10--------13--|--10-----------------|---------15-15------17---18--|
----------------13-------|---------------------|---------------18------------|
-------------------------|---------------------|-----------------------------|
-------------------------|---------------------|-----------------------------|
-------------------------|---------------------|-----------------------------|
-------------------------|---------------------|-----------------------------|


   Q    H.              Q.      S  S  E.   E.   E      W                 
--15-----------------|---------13-13-10--------13--|--10----------------|
---------------------|--------------------13-------|--------------------|
---------------------|-----------------------------|--------------------|
---------------------|-----------------------------|--------------------|
---------------------|-----------------------------|--------------------|
---------------------|-----------------------------|--------------------|


  W                   W                                                
--L----------------|--L----------------|-----|-----|-----|-----|-----||
-------------------|-------------------|-----|-----|-----|-----|-----||
-------------------|-------------------|-----|-----|-----|-----|-----||
-------------------|-------------------|-----|-----|-----|-----|-----||
-------------------|-------------------|-----|-----|-----|-----|-----||
-------------------|-------------------|-----|-----|-----|-----|-----||


Bass
     S S S S S S S S S S S S S S S S    S S S S S S S S S S S S S S S S  
G||----------------------------------|----------------------------------|
D||----------------------------------|------------------------------0-0-|
A||----------------------------------|----------------------0-0-1-1-----|
E||--3-3-3-3-3-3-3-3-3-3-3-3-3-3-3-3-|--3-3-3-3-3-3-3-3-3-3-------------|
B||----------------------------------|----------------------------------|


  S S S S S S S S S S S S S S S S    H        H         
----------------------------------|--------------------|
--1-1-1-1-1-1-1-1-1-1-1-1-1-1-1-1-|-----------0--------|
----------------------------------|--3-----------------|
----------------------------------|--------------------|
----------------------------------|--------------------|


  S S S S S S S S S S S S S S S S    S S S S S S S S S S S S S S S S  
----------------------------------|----------------------------------|
----------------------------------|------------------------------0-0-|
----------------------------------|----------------------0-0-1-1-----|
--3-3-3-3-3-3-3-3-3-3-3-3-3-3-3-3-|--3-3-3-3-3-3-3-3-3-3-------------|
----------------------------------|----------------------------------|


  S S S S S S S S S S S S S S S S    H        S S S S S S S S  
----------------------------------|---------------------------|
--1-1-1-1-1-1-1-1-1-1-1-1-1-1-1-1-|--1--------0-0-------------|
----------------------------------|---------------3-3-1-1-0-0-|
----------------------------------|---------------------------|
----------------------------------|---------------------------|


  S S S S S S S S S S S S S S S S    S S S S S S S S S S S S S S S S  
----------------------------------|------------------------------0-0-|
----------------------------------|--------------------------0-0-----|
----------------------------------|----------------------------------|
--3-3-3-3-3-3-3-3-3-3-3-3-3-3-3-3-|--3-3-3-3-3-3-3-3-3-3-3-3---------|
----------------------------------|----------------------------------|


  S S S S S S S S S S S S S S S S    Q.     S S Q.     S S  
----------------------------------|--8------L-L-5------L-L-|
--3-3-3-3-3-3-3-3-3-3-3-3-3-3-3-3-|------------------------|
----------------------------------|------------------------|
----------------------------------|------------------------|
----------------------------------|------------------------|


  S S S S S S S S S S S S S S S S    S S S S S S S S S S S S S S S S  
----------------------------------|----------------------------------|
----------------------------------|----------------------------------|
----------------------------------|----------------------------------|
--3-3-3-3-3-3-3-3-3-3-3-3-3-3-3-3-|--3-3-3-3-3-3-3-3-3-3-3-3-3-3-3-3-|
----------------------------------|----------------------------------|


  S S S S S S S S S S S S S S S S    Q.     E  Q.     E   
----------------------------------|--8------8--7------7--|
------------------3-3-3-3-3-3-3-3-|----------------------|
--------------3-3-----------------|----------------------|
--1-1-1-1-1-1---------------------|----------------------|
----------------------------------|----------------------|


  E.  S E  Q    S S S S S S    E.  S E  Q    S S S S S S  
----------------------------|----------------------------|
----------------------------|----------------------------|
--6---6----6----6-6-6-6-5-5-|--3---3----3----1-1-3-3-4-4-|
----------------------------|----------------------------|
----------------------------|----------------------------|


  E.  S E  Q    S S S S S S    S S S S S S S S S S S S S S S S  
----------------------------|------------------0-0-------------|
--0---0----0----------------|--------------0-0-----3-3-1-1-0-0-|
----------------3-3-1-1-0-0-|------0-0-1-1---------------------|
----------------------------|--3-3-----------------------------|
----------------------------|----------------------------------|


  E.  S E  Q    S S S S S S    E.  S E  Q    S S S S S S  
----------------------------|----------------------------|
--1---1----1----1-1-1-1-0-0-|----------------------------|
----------------------------|--3---3----3----1-1-3-3-4-4-|
----------------------------|----------------------------|
----------------------------|----------------------------|


  E.  S E  Q    E  S S S S    Q    Q    Q    Q                             
---------------------------|----------------------|-------|-------|-------|
--0---0----0---------------|--0-------------------|-------|-------|-------|
-------------------1-1-3-3-|-------3----1----0----|-------|-------|-------|
---------------------------|----------------------|-------|-------|-------|
---------------------------|----------------------|-------|-------|-------|


                                          S S S S S S S S S S S S S S S S  
-------|-------|-------|-------|-------|----------------------------------|
-------|-------|-------|-------|-------|----------------------------------|
-------|-------|-------|-------|-------|----------------------------------|
-------|-------|-------|-------|-------|--3-3-3-3-3-3-3-3-3-3-3-3-3-3-3-3-|
-------|-------|-------|-------|-------|----------------------------------|


  S S S S S S S S S S S S S S S S    S S S S S S S S S S S S S S S S  
----------------------------------|----------------------------------|
------------------------------0-0-|--1-1-1-1-1-1-1-1-1-1-1-1-1-1-1-1-|
----------------------0-0-1-1-----|----------------------------------|
--3-3-3-3-3-3-3-3-3-3-------------|----------------------------------|
----------------------------------|----------------------------------|


  H        H           S S S S S S S S S S S S S S S S  
--------------------|----------------------------------|
-----------0--------|----------------------------------|
--3-----------------|----------------------------------|
--------------------|--3-3-3-3-3-3-3-3-3-3-3-3-3-3-3-3-|
--------------------|----------------------------------|


  S S S S S S S S S S S S S S S S    S S S S S S S S S S S S S S S S  
----------------------------------|----------------------------------|
------------------------------0-0-|--1-1-1-1-1-1-1-1-1-1-1-1-1-1-1-1-|
----------------------0-0-1-1-----|----------------------------------|
--3-3-3-3-3-3-3-3-3-3-------------|----------------------------------|
----------------------------------|----------------------------------|


  H        H           Q    H.              H        E.  E.  E   
--------------------|--0-----------------|----------------------|
-----------0--------|--------------------|-----------3---3---3--|
--3-----------------|--------------------|----------------------|
--------------------|--------------------|----------------------|
--------------------|--------------------|----------------------|


  Q    H.              H        E.  E.  E     S S S S S S S S S S S S S S S S  
--0-----------------|----------------------|----------------------------------|
--------------------|-----------3---3---3--|--1-1-1-1-1-1-1-1-1-1-1-1-1-1-1-1-|
--------------------|----------------------|----------------------------------|
--------------------|----------------------|----------------------------------|
--------------------|----------------------|----------------------------------|


  S S S S S S S S S S S S S S S S    S S S S S S S S S S S S S S S S  
----------------------------------|----------------------------------|
--1-1-1-1-1-1-1-1-1-1-1-1-1-1-1-1-|--3-3-3-3-3-3-3-3-3-3-3-3-3-3-3-3-|
----------------------------------|----------------------------------|
----------------------------------|----------------------------------|
----------------------------------|----------------------------------|


  S S S S S S S S S S S S S S S S    S S S S S S S S S S S S S S S S  
----------------------------------|----------0-0-0-0-0-0-0-0-0-0-0-0-|
--3-3-3-3-3-3-3-3-3-3-3-3-3-3-3-3-|--3-3-3-3-------------------------|
----------------------------------|----------------------------------|
----------------------------------|----------------------------------|
----------------------------------|----------------------------------|


  S S S S S S S S S S S S S S S S    S S S S S S S S S S S S S S S S  
--0-0-0-0-0-0-0-0-0-0-0-0-0-0-0-0-|--2-2-2-2-2-2-2-2-2-2-2-2-2-2-2-2-|
----------------------------------|----------------------------------|
----------------------------------|----------------------------------|
----------------------------------|----------------------------------|
----------------------------------|----------------------------------|


  S S S S S S S S S S S S S S S S   
--3-3-3-3-3-3-3-3-5-5-5-5-7-7-7-7-||
----------------------------------||
----------------------------------||
----------------------------------||
----------------------------------||


Synthy part transposed for guitar
E||-------|-------|-------|-------|-------|-------|-------|-------|-------|
B||-------|-------|-------|-------|-------|-------|-------|-------|-------|
G||-------|-------|-------|-------|-------|-------|-------|-------|-------|
D||-------|-------|-------|-------|-------|-------|-------|-------|-------|
A||-------|-------|-------|-------|-------|-------|-------|-------|-------|
E||-------|-------|-------|-------|-------|-------|-------|-------|-------|


-------|-------|-------|-------|-------|-------|-------|-------|-------|-------|
-------|-------|-------|-------|-------|-------|-------|-------|-------|-------|
-------|-------|-------|-------|-------|-------|-------|-------|-------|-------|
-------|-------|-------|-------|-------|-------|-------|-------|-------|-------|
-------|-------|-------|-------|-------|-------|-------|-------|-------|-------|
-------|-------|-------|-------|-------|-------|-------|-------|-------|-------|


                                           S  S  S  S  S  S  S  S  S  S  S  S  
-------|-------|-------|-------|-------|--------------------10----------------|
-------|-------|-------|-------|-------|-----------------11----13-11-13-11-10-|
-------|-------|-------|-------|-------|--------12----12----------------------|
-------|-------|-------|-------|-------|-----12----12-------------------------|
-------|-------|-------|-------|-------|--10----------------------------------|
-------|-------|-------|-------|-------|--------------------------------------|


   S  S  S  S  S  S  S  S  S  S  S  S     S  S  S  S  S  S  S  S  S  S  S  S  
--------------------------------------|--------------------10----------------|
--11-10----10-------------------------|-----------------11----13-11-13-11-10-|
--------12----12-10-12-10----10-------|--------12----12----------------------|
--------------------------13----13-12-|-----12----12-------------------------|
--------------------------------------|--10----------------------------------|
--------------------------------------|--------------------------------------|


   S  S  S  S  S  S  S  S  S  S  S  S     S  S  S  S  S  S  S  S  S  S  S  S  
--------------------------------------|--------------------10----------------|
--11-10----10-------------------------|-----------------11----13-11-13-11-10-|
--------12----12-10-12-10----10-------|--------12----12----------------------|
--------------------------13----13-12-|-----12----12-------------------------|
--------------------------------------|--10----------------------------------|
--------------------------------------|--------------------------------------|


   S  S  S  S  S  S  S  S  S  S  S  S     S  S  S  S  S  S  S  S  S  S  S  S  
--------------------------------------|--------------------10----------------|
--11-10----10-------------------------|-----------------11----13-11-13-11-10-|
--------12----12-10-12-10----10-------|--------12----12----------------------|
--------------------------13----13-12-|-----12----12-------------------------|
--------------------------------------|--10----------------------------------|
--------------------------------------|--------------------------------------|


   S  S  S  S  S  S  S  S  S  S  S  S                                          
--------------------------------------|----|----|----|----|----|----|----|----|
--11-10----10-------------------------|----|----|----|----|----|----|----|----|
--------12----12-10-12-10----10-------|----|----|----|----|----|----|----|----|
--------------------------13----13-12-|----|----|----|----|----|----|----|----|
--------------------------------------|----|----|----|----|----|----|----|----|
--------------------------------------|----|----|----|----|----|----|----|----|


  Q     S  S  S  S  S  S  S  S  S  S  S  S     S  S  S  S  Q    H         
-------------------------------------10----|--10-15-------18-------------|
----------------------------11----11----11-|-----------15----------------|
-------------------12----12----12----------|--------15-------------------|
----------------12----12-------------------|-----------------------------|
-------10----13----------------------------|-----------------------------|
----------10-------------------------------|-----------------------------|


  Q     S  S  S  S  S  S  S  S  S  S  S  S     S  S S S  Q    H              
----------15-------------------------------|---------------------------|----|
-------15-------15-------15----------------|---------------------------|----|
-------------15-------15----15----------15-|--------0------------------|----|
-------------------17----------17----17----|----------0----------------|----|
----------------------------------17-------|--17-----------------------|----|
-------------------------------------------|-----18-----18-------------|----|


----|----|----|----|----|----|----||
----|----|----|----|----|----|----||
----|----|----|----|----|----|----||
----|----|----|----|----|----|----||
----|----|----|----|----|----|----||
----|----|----|----|----|----|----||


Duration Legend
---------------
W - whole
H - half
Q - quarter
E - 8th
S - 16th
T - 32nd
X - 64th
. - note dotted
|-n-|  - n-tuplets


Tablature Legend
----------------
L - tied note
x - dead note
g - grace note
(n) - ghost note
> - accentuded note
NH - natural harmonic
AH - artificial harmonic
TH - tapped harmonic
SH - semi harmonic
PH - pitch harmonic
h - hammer on
p - pull off
b - bend
br - bendRelease
pb - preBend
pbr - preBendRelease
brb - bendReleaseBend
\n/ - tremolo bar dip
\n - tremolo bar dive
-/n - tremolo bar Release up
/n\ - tremolo bar inverted dip
/n - tremolo bar return
-\n - tremolo bar Release down
S - shift slide
s - legato slide
/ -  slide into from below or out of upwards
\ -  slide into from above or out of downwards
~ - vibrato
W - wide vibrato
tr - trill
TP - tremolo picking
T - tapping
S - slap
P - pop
< - fade in
^ - brush up
v - brush down
Login or Register to remove this ad.

1 comment on VS Lumine ~ The Second Form

This is awesome, thanks for

This is awesome, thanks for tabbing it!