Login or Register to remove this ad.

Jakob (Mega Man X8) Guitar Tab

Submitted: Jan 02, 2013 by hslesperance

5
Average: 5 (1 vote)
Download | Listen
Game: Mega Man X8
Composer(s): Yuko Komiyama, Shinya Okada, Naoto Tanaka
Style: 2 or more instruments, Transcription
Series: Mega Man

This song is also called Jakob Orbital Elevator

AutoScroll: Slow | Medium | Fast
Jakob
Mega Man X8
Composed by Yuko Komiyama
Tabbed by hslesperance
1/2/13

Standard Tuning




Guitar 1

  W               W                   W               W
|---------------|-------------------|---------------|--------------------|
|---------------|-------------------|---------------|--------------------|
|---------------|-------------------|---------------|--------------------|
|---------------|-------------------|---------------|--------------------|
|---------------|-------------------|---------------|--------------------|
|---------------|-------------------|---------------|--------------------|


  a Q   S E E.   Q   E   E Q     Q    Q.     a Q   S E E.   Q   E   E E E   a Q    Q    E
|----------------------|-------------------|--------------------5-|-7-5-7------------------|
|-5s7---5---5----7-----|-------------------|-5s7---5---5----7-----|---------5s7----5-------|
|---------7------------|-4-7-----6---------|---------7------------|---------------------7--|
|--------------------7-|--------------7----|----------------------|------------------------|
|----------------------|-------------------|----------------------|------------------------|
|----------------------|-------------------|----------------------|------------------------|


  a Q   S E E.   Q   E   E E E   Q    Q.     a Q   E Q   Q   a E   +H          Q  Q
|----------------------|-------------------|---------------------|-------------------|
|-5s7---5---5----7-----|-------------------|---------------------|----------------5--|
|---------7------------|-4---4-------------|-2s4---7-6-------2s4-|-(4)---------6-----|
|--------------------7-|---7-----4----7----|-------------7-------|-------------------|
|----------------------|-------------------|---------------------|-------------------|
|----------------------|-------------------|---------------------|-------------------|

                   ~~~
  W               +W                    W               W
|---------------|---------------------|---------------|-------------------|
|---------------|---------------------|---------------|-------------------|
|-7-------------|-(7)-----------------|---------------|-------------------|
|---------------|---------------------|---------------|-------------------|
|---------------|---------------------|---------------|-------------------|
|---------------|---------------------|---------------|-------------------|


  a Q   S E E.   Q   E   E Q     Q    Q.     a Q   S E E.   Q   E   E E E   a Q    Q    E
|----------------------|-------------------|--------------------5-|-7-5-7------------------|
|-5s7---5---5----7-----|-------------------|-5s7---5---5----7-----|---------5s7----5-------|
|---------7------------|-4-7-----6---------|---------7------------|---------------------7--|
|--------------------7-|--------------7----|----------------------|------------------------|
|----------------------|-------------------|----------------------|------------------------|
|----------------------|-------------------|----------------------|------------------------|


  a Q   S E E.   Q   E   E E  E   Q     Q    a  E    +Q     E  Q.      E     +E     +E  E  E   E  E   E     E a  E
|--------------------5-|-7-9-10---9----12---12s14-|-(14)---12-10------10b12r(10)-|-(10)-9------9--------------------|
|-5s7---5---5----7-----|--------------------------|------------------------------|--------10-----12--------10-------|
|---------7------------|--------------------------|------------------------------|-------------------12-------9s11--|
|----------------------|--------------------------|------------------------------|----------------------------------|
|----------------------|--------------------------|------------------------------|----------------------------------|
|----------------------|--------------------------|------------------------------|----------------------------------|

                    ~~~~
   +W              +W             W               W
|---------------|---------------|---------------|---------------|
|---------------|---------------|---------------|---------------|
|-(11)----------|-(11)----------|---------------|---------------|
|---------------|---------------|---------------|---------------|
|---------------|---------------|---------------|---------------|
|---------------|---------------|---------------|---------------|


  E    E    E    E    E    a  Q        S  S    a  H.                        +E     E
|---------------14---17---17s19-------------|-------------------------------------10---|
|-----15---17-------------------------19-17-|-17s19------------------------(19)--------|
|-------------------------------------------|------------------------------------------|
|-------------------------------------------|------------------------------------------|
|-------------------------------------------|------------------------------------------|
|-------------------------------------------|------------------------------------------|


   E    E    E    Q        E    a  Q         E    Q        Q.            Q
|-12---14-----------------10---10s12-------|-9-----------------------------------|
|-----------12---14------------------------|-----10-------12------------10-------|
|------------------------------------------|-------------------------------------|
|------------------------------------------|-------------------------------------|
|------------------------------------------|-------------------------------------|
|------------------------------------------|-------------------------------------|


   Q.      Q.       Q      Q.      Q.        Q      H          H
|-----------------------|---------10--------14---|-12---------17-------|
|-----------------------|------------------------|---------------------|
|-------------------9---|-11---------------------|---------------------|
|---------10------------|------------------------|---------------------|
|-10--------------------|------------------------|---------------------|
|-----------------------|------------------------|---------------------|

                            ~~~~
   a  W                    +H.                  +E      E
|-12s14-----------------|-(14)-----------------(14)---------|
|-----------------------|------------------------------19---|
|-----------------------|-----------------------------------|
|-----------------------|-----------------------------------|
|-----------------------|-----------------------------------|
|-----------------------|-----------------------------------|


   a  E.    a  E.      Q.       E    E      E.    E.      E     +Q.        S  S
|-17h19----17h19-------------------------|--------------------------------------|
|---------------------19-------19---17---|-------17-----------------------------|
|----------------------------------------|-19------------16----(16)-------16-18-|
|----------------------------------------|--------------------------------------|
|----------------------------------------|--------------------------------------|
|----------------------------------------|--------------------------------------|


   E.    E.      Q.       Q          H.                  E    E
|---------------------------------|------------------------------|
|-------17------20-------19-------|--------------------------19--|
|-19------------------------------|-19---------------------------|
|---------------------------------|------------------------------|
|---------------------------------|------------------------------|
|---------------------------------|------------------------------|


   a  E.    a  E.      Q.       E    E      E.    E.      E     +Q      E     E
|-17h19----17h19-------------------------|--------------------------------------|
|---------------------19-------19---17---|-------17-----------------------------|
|----------------------------------------|-19------------16----(16)----------16-|
|----------------------------------------|-----------------------------19-------|
|----------------------------------------|--------------------------------------|
|----------------------------------------|--------------------------------------|


   +H                 +E     a  E.      E.        a  H                a  H
|----------------------------------------------|---------------------15s17---------------|
|----------------------------------------------|-15s17-----------------------------------|
|-(16)---------------(16)---16s18------19------|-----------------------------------------|
|----------------------------------------------|-----------------------------------------|
|----------------------------------------------|-----------------------------------------|
|----------------------------------------------|-----------------------------------------|


   a  W                     +W
|-17s19------------------|-(19)----------------*|
|------------------------|---------------------*|
|------------------------|---------------------*|
|------------------------|---------------------*|
|------------------------|---------------------*|
|------------------------|---------------------*|




Guitar 2

  E E Q  E E Q    E E S S S E. Q.     E E Q  E E Q    E E S S E E. E. E
|---------------|-------------------|---------------|--------------------|
|---------------|-------------------|---------------|--------------------|
|---------------|-------------------|---------------|--------------------|
|-4-4----7-7----|-------------------|-4-4----7-7----|-----------------3--|
|-2-2----5-5----|-5-5-5-5-5-5--4----|-2-2----5-5----|-5-5-5-5-5-5--7--1--|
|---------------|-3-3-3-3-3-3--2----|---------------|-3-3-3-3-3-3--5-----|


    E E Q      E E Q     E E S S S E. Q.     E E Q      E E Q       E E S S   E E.   E. E
|----------------------|-------------------|----------------------|------------------------|
|----------------------|-------------------|----------------------|------------------------|
|----------------------|-------------------|----------------------|------------------------|
|---4-4--------7-7-----|-------------------|---4-4--------7-7-----|---------------------3--|
|---2-2--------5-5-----|-5-5-5-5-5-5--4----|---2-2--------5-5-----|-5-5-5-5---5-5----7--1--|
|----------------------|-3-3-3-3-3-3--2----|----------------------|-3-3-3-3---3-3----5-----|


    E E Q      E E Q     E E S S S E. Q.     E E Q   E E Q          E  E S S E Q  Q
|----------------------|-------------------|---------------------|-------------------|
|----------------------|-------------------|---------------------|-------------------|
|----------------------|-------------------|---------------------|-------------------|
|---4-4--------7-7-----|-------------------|---4-4-----7-7-------|-------------------|
|---2-2--------5-5-----|-5-5-5-5-5-5--4----|---2-2-----5-5-------|--5--5-5-5-5-5--7--|
|----------------------|-3-3-3-3-3-3--2----|---------------------|--3--3-3-3-3-3--5--|


  E E Q  E E Q     E  E S S S E. Q.     E E Q  E E Q    E E Q  S E S E E
|---------------|---------------------|---------------|-------------------|
|---------------|---------------------|---------------|-------------------|
|---------------|---------------------|---------------|-------------------|
|-4-4----7-7----|---------------------|-4-4----7-7----|--------5-5-5-5-5--|
|-2-2----5-5----|--5--5-5-5-5-5--4----|-2-2----5-5----|-5-5----3-3-3-3-3--|
|---------------|--3--3-3-3-3-3--2----|---------------|-3-3---------------|


    E E Q      E E Q     E E S S S E. Q.     E E Q      E E Q       E E S S   E E.   E. E
|----------------------|-------------------|----------------------|------------------------|
|----------------------|-------------------|----------------------|------------------------|
|----------------------|-------------------|----------------------|------------------------|
|---4-4--------7-7-----|-------------------|---4-4--------7-7-----|---------------------3--|
|---2-2--------5-5-----|-5-5-5-5-5-5--4----|---2-2--------5-5-----|-5-5-5-5---5-5----7--1--|
|----------------------|-3-3-3-3-3-3--2----|----------------------|-3-3-3-3---3-3----5-----|


    E E Q      E E Q     E E  S S S E.Q.     E E Q      E E Q       E E S S   E E.   E. E
|----------------------|-------------------|----------------------|------------------------|
|----------------------|-------------------|----------------------|------------------------|
|----------------------|-------------------|----------------------|------------------------|
|---4-4--------7-7-----|-------------------|---4-4--------7-7-----|---------------------3--|
|---2-2--------5-5-----|-5-5-5-5-5-5--4----|---2-2--------5-5-----|-5-5-5-5---5-5----7--1--|
|----------------------|-3-3-3-3-3-3--2----|----------------------|-3-3-3-3---3-3----5-----|

    PM---------------------------------------------------------------------
    S  S S S S S S S S S S S S S S S     S  S S S S S S S S S S S S S S S
|------------------------------------|------------------------------------|
|------------------------------------|------------------------------------|
|------------------------------------|------------------------------------|
|------------------------------------|------------------------------------|
|---5--5-5-5-5-5-5-5-5-5-5-5-5-5-5-5-|---5--5-5-5-5-5-5-5-5-5-5-5-5-5-5-5-|
|---3--3-3-3-3-3-3-3-3-3-3-3-3-3-3-3-|---3--3-3-3-3-3-3-3-3-3-3-3-3-3-3-3-|

 -----------------------------------------------------------------|
  S S S S S S S S S S S S S S S S   S S S S S S S S S S S S S S S S
|---------------------------------|------------------------------------|
|---------------------------------|------------------------------------|
|---------------------------------|------------------------------------|
|---------------------------------|------------------------------------|
|-7-7-7-7-7-7-7-7-7-7-7-7-7-7-7-7-|-7-7-7-7-7-7-7-7-7-7-7-7-7-7-7-7----|
|-5-5-5-5-5-5-5-5-5-5-5-5-5-5-5-5-|-5-5-5-5-5-5-5-5-5-5-5-5-5-5-5-5----|

  PM------------------------------------------------------------------------------------
  S S  S S  S S  S S  S S     S S S S  S  S       S  S S S S S S S S S S S   S  S  S S
|-------------------------------------------|------------------------------------------|
|-------------------------------------------|------------------------------------------|
|-------------------------------------------|------------------------------------------|
|-------------------------------------------|------------------------------------------|
|-5-5--5-5--5-5--5-5--5-5-----5-5-5-5--5--5-|-----5--5-5-5-5-5-5-5-5-5-5-5---5--5--5-5-|
|-3-3--3-3--3-3--3-3--3-3-----3-3-3-3--3--3-|-----3--3-3-3-3-3-3-3-3-3-3-3---3--3--3-3-|

 ------------------------------------------------------------------------------|
   S S  S S  S S  S S S S  S S     S S S S   S S  S S S S  S  S S S S S  S S S S
|------------------------------------------|-------------------------------------|
|------------------------------------------|-------------------------------------|
|------------------------------------------|-------------------------------------|
|------------------------------------------|--------------------4-4-4-4--7-7-7-7-|
|--7-7--7-7--7-7--7-7-7-7--7-7-----7-7-7-7-|-7-7--7-7-7-7--7--7-2-2-2-2--5-5-5-5-|
|--5-5--5-5--5-5--5-5-5-5--5-5-----5-5-5-5-|-5-5--5-5-5-5--5--5------------------|


   E  E E  S  S E E E E    E  E E  S  S E E  E E    E E E S S  E E E E
|-----------------------|------------------------|---------------------|
|-----------------------|------------------------|---------------------|
|-----------------------|------------------------|---------------------|
|--5--5-5--5--5-5-5-5-5-|--7--7-7--7--7-7-7--7-7-|---------------------|
|--3--3-3--3--3-3-3-3-3-|--5--5-5--5--5-5-5--5-5-|--7-7-7-7-7--7-7-7-7-|
|-----------------------|------------------------|--5-5-5-5-5--5-5-5-5-|


      E E E S S E E E E     E  S S S S S E. E.      E.
|-----------------------|-----------------------------------|
|-----------------------|-----------------------------------|
|-----------------------|-----------------------------------|
|-----------------------|-----------------------------------|
|-----4-4-4-4-4-4-4-4-4-|---4--4-4-4-4-4-4--5-------7-------|
|-----2-2-2-2-2-2-2-2-2-|---2--2-2-2-2-2-2--3-------5-------|


      E  E        S S  S  E. E  S S  S S    E  S  S  S S  S E.      E. E.
|----------------------------------------|--------------------------------------|
|----------------------------------------|--------------------------------------|
|----------------------------------------|--------------------------------------|
|-----4--4--------4-4--4--7--7--7-7--7-7-|-----------------------------3--------|
|-----2--2--------2-2--2--5--5--5-5--5-5-|--5--5--5--5-5--5-5-------7--1--------|
|----------------------------------------|--3--3--3--3-3--3-3-------5-----------|


   E  E     S S  S  E. E  S S S S    E  S S S S S E. S E   S  E
|---------------------------------|------------------------------|
|---------------------------------|------------------------------|
|---------------------------------|------------------------------|
|--4--4-----4-4--4--7--7--7-7-7-7-|------------------4-5---4--5--|
|--2--2-----2-2--2--5--5--5-5-5-5-|--5--5-5-5-5-5-5--2-3---2--3--|
|---------------------------------|--3--3-3-3-3-3-3--------------|


      E  E        S S  S  E. E  S S  S S    E  S  S  S S  S E.      E.    E.
|----------------------------------------|--------------------------------------|
|----------------------------------------|--------------------------------------|
|----------------------------------------|--------------------------------------|
|-----4--4--------4-4--4--7--7--7-7--7-7-|--------------------------------------|
|-----2--2--------2-2--2--5--5--5-5--5-5-|--5--5--5--5-5--5-5-------5-----7-----|
|----------------------------------------|--3--3--3--3-3--3-3-------3-----5-----|

    PM---------------------------------------------------------------------------------|
    S  S S S S S S S   S  S     S  S S  S  S S       S S S S S S S S     S S S S S S S S
|----------------------------------------------|-----------------------------------------|
|----------------------------------------------|-----------------------------------------|
|----------------------------------------------|-----------------------------------------|
|---5--5-5-5-5-5-5-5---5--5-----5--5-5--5--5-5-|-----------------------------------------|
|---3--3-3-3-3-3-3-3---3--3-----3--3-3--3--3-3-|-----7-7-7-7-7-7-7-7-----7-7-7-7-7-7-7-7-|
|----------------------------------------------|-----5-5-5-5-5-5-5-5-----5-5-5-5-5-5-5-5-|


      E. E. E. E. E. S      +E  E. E. E E E E
|------------------------|---------------------*|
|------------------------|---------------------*|
|-----------------2--4---|--(4)-2--------------*|
|-----------2--4---------|---------4--2--------*|
|-----2--5---------------|--------------5-4----*|
|------------------------|------------------5--*|

h - hammer on
s - slide
b - bend
r - release
~ - vibrato
PM - palm mute

W - whole
H - half
Q - quarter
E - 8th
S - 16th
a - acciaccatura
+ - note tied to previous
. - note dotted
Login or Register to remove this ad.

2 comments on Jakob

I'm not sure about some

I'm not sure about some measures on guitar 2, it should be right for the most part.

One of the best songs in the X series.

Awesome Indeed!!!

5

Indeed one of most awesome songs in the x series thanks for share it :D