Login or Register to remove this ad.

Sigma 2nd (Mega Man X6) Bass/Guitar Tab

Submitted: Jul 15, 2017 by JordanVS

0
Download | Listen
Game: Mega Man X6
Composer(s): Naoto Tanaka
Style: 2 or more instruments, Transcription
Series: Mega Man

AutoScroll: Slow | Medium | Fast
Sigma 2nd                                               
Final Boss Theme
Mega Man X6
Naoto Tanaka 
JordanVS

I wrote multiple ways of playing the rhythm section. 
Of course, you can also try adding the 5th note for a fuller sound. 
I also added a simple solo guitar arrangement as a bonus. 
-Tempo : 150

Lead Guitar
  
  6/4				    5/4				 4/4
      Q     Q     W                    Q     Q     H.               W                 
E||--------------------------------|----------------------------|--10----------------|
B||--------10----------------------|--------13----10------------|--------------------|
G||--------------10----------------|--12------------------------|--------------------|
D||--12----------------------------|----------------------------|--------------------|
A||--------------------------------|----------------------------|--------------------|
E||--------------------------------|----------------------------|--------------------|



|--------------------|-------------------|-------------------|-------------------|
|--------------------|-------------------|-------------------|-------------------|
|*-------------------|-------------------|-------------------|-------------------|
|*-------------------|-------------------|-------------------|-------------------|
|--------------------|-------------------|-------------------|-------------------|
|--------------------|-------------------|-------------------|-------------------|


  E.   E.  E   E.   E.  E      E.  E.  E  Q    Q       E.   E.  E   E.   E.   E   
---------------------------|------------------------|------------------------10--|
------12------11---10---8--|--10---8----------------|------12------11---10-------|
--9--------9---------------|-----------9--7----8----|--9--------9----------------|
---------------------------|------------------------|----------------------------|
---------------------------|------------------------|----------------------------|
---------------------------|------------------------|----------------------------|


   |---3---|   |---3---|   |---3---|  |---3---|                                  
   E   E   E   E   E   E   E   E   E  E   E   E      E.   E.   E   E.   E.   E   
--12--13--12--11--12--11--10--11--10--9--10------|-------12---------------------|
---------------------------------------------10--|--12--------12--11---10-------|
-------------------------------------------------|--------------------------12--|
-------------------------------------------------|------------------------------|
-------------------------------------------------|------------------------------|
-------------------------------------------------|------------------------------|


   E.   E.   E   Q     Q        E.   E.   E   E.   E.   E   
------------10--------------|-------12-----------------10--|
--10------------10----11----|--12--------12--11---10-------|
-------12-------------------|------------------------------|
----------------------------|------------------------------|
----------------------------|------------------------------|
----------------------------|------------------------------|


   |---3---|   |---3---|   |---3---|   |---3---|                                  
   E   E   E   E   E   E   E   E   E   E   E   E      E.   E.   E   E.   E.   E   
--12--18----------17----------16------------------|------------------------------|
----------17--16------16--15------15--14----------|--12---12---12--12---10-------|
------------------------------------------12--14--|--------------------------12--|
--------------------------------------------------|------------------------------|
--------------------------------------------------|------------------------------|
--------------------------------------------------|------------------------------|


   E.   E.  H         S  S     H         E.   E.   E      H         Q     Q       H.            
-------10---L--------10-12-|--13--------13---12---10--|--12--------12----14----|---------------|
--10-----------------------|--------------------------|------------------------|---------------|
---------------------------|--------------------------|------------------------|---------------|
---------------------------|--------------------------|------------------------|---------------|
---------------------------|--------------------------|------------------------|---------------|
---------------------------|--------------------------|------------------------|---------------|


  H.              H.              H.               H        E   S  S     H.            
---------------|---------------|---------------|---------------------|----------------|
---------------|---------------|---------------|--14--------L--14-16-|--17------------|
---------------|---------------|---------------|---------------------|----------------|
---------------|---------------|---------------|---------------------|----------------|
---------------|---------------|---------------|---------------------|----------------|
---------------|---------------|---------------|---------------------|----------------|


   H        E   S  S     H.              W                   
---------------17-19-|--20------------|--L-----------------||
--17--------L--------|----------------|--------------------||
---------------------|----------------|-------------------*||
---------------------|----------------|-------------------*||
---------------------|----------------|--------------------||
---------------------|----------------|--------------------||



Rhythm Guitar - 7 Strings
  
  6/4				       5/4			     4/4
                        PM  PM  PM PM                 PM  PM  PM PM                      
     Q    Q    H        E.  E.  S  S     H.           E.  E.  S  S     W                 
E||-----------------------------------|-----------------------------|-------------------|
B||-----------------------------------|-----------------------------|-------------------|
G||-----------------------------------|-----------------------------|-------------------|
D||--5----5----5----------------------|--5--------------------------|--5----------------|
A||--5----5----5----------------------|--5--------------------------|--5----------------|
E||--3----3----3--------3---3---3--3--|--3------------3---3---3--3--|--3----------------|
B||-----------------------------------|-----------------------------|-------------------|


   S S S S S S S S S S S S Q       S S S S S S S S S S S S Q       S S S S S S S S S S S S Q     
|-------------------------------|-------------------------------|-------------------------------|
|-------------------------------|-------------------------------|-------------------------------|
|*------------------------------|-------------------------------|-------------------------------|
|*------------------------------|-------------------------------|-------------------------------|
|-------------------------------|-------------------------------|-------------------------------|
|--0-0-0-0-0-0-0-0-5-0-6-5-L----|--0-0-0-0-0-0-0-0-3-5-3--------|--0-0-0-0-0-0-0-0-5-0-6-5-L----|
|-------------------------------|------------------------3-L----|-------------------------------|


  S S S S S S S S S S S S Q       S S S S S S S S S S S S Q       S S S S S S S S S S S S Q     
-------------------------------|-------------------------------|-------------------------------|
-------------------------------|-------------------------------|-------------------------------|
-------------------------------|-------------------------------|-------------------------------|
-------------------------------|-------------------------------|-------------------------------|
-------------------------------|-------------------------------|-------------------------------|
--0-0-0-0-0-0-0-0-3-5-3--------|--0-0-0-0-0-0-0-0-5-0-6-5-L----|--0-0-0-0-0-0-0-0-3-5-3--------|
------------------------3-L----|-------------------------------|------------------------3-L----|


                                  |--3--|  |--3--|  |--3--|  |--3--|   
  S S S S S S S S S S S S Q       E  E  E  E  E  E  E  E  E  E  E  E   
-------------------------------|--------------------------------------|
-------------------------------|--------------------------------------|
-------------------------------|--------------------------------------|
-------------------------------|--------------------------------------|
-------------------------------|--------------------------------------|
--0-0-0-0-0-0-0-0-5-0-6-5-L----|--5--6--5--4--5--4--3--4--3--2--3-----|
-------------------------------|-----------------------------------3--|


  S S S S S S S S S S S S Q       S S S S S S S S S S S S Q       S S S S S S S S S S S S Q     
-------------------------------|-------------------------------|-------------------------------|
-------------------------------|-------------------------------|-------------------------------|
-------------------------------|-------------------------------|-------------------------------|
-------------------------------|-------------------------------|-------------------------------|
-------------------------------|-------------------------------|-------------------------------|
--0-0-0-0-0-0-0-0-5-0-6-5-L----|--0-0-0-0-0-0-0-0-3-5-3--------|--0-0-0-0-0-0-0-0-5-0-6-5-L----|
-------------------------------|------------------------3-L----|-------------------------------|


                                         PM PM PM PM PM PM PM PM PM PM PM PM PM PM PM PM  
  |--3--|  |--3--|  |--3--|  |--3--|                                                      
  E  E  E  E  E  E  E  E  E  E  E  E     S  S  S  S  S  S  S  S  S  S  S  S  S  S  S  S   
--------------------------------------|--------------------------------------------------|
--------------------------------------|--------------------------------------------------|
--------------------------------------|--------------------------------------------------|
--------------------------------------|--------------------------5--------5--------5-----|
--------------------------------------|--3--3--3--3--3--3--3--3--3--3--3--3--3--3--3--3--|
--5--6--5--4--5--4--3--4--3--2--3-----|--------------------------------------------------|
-----------------------------------3--|--------------------------------------------------|


  PM PM PM PM PM PM PM PM PM PM PM PM PM PM PM PM  
  S  S  S  S  S  S  S  S  S  S  S  S  S  S  S  S   
--------------------------------------------------|
--------------------------------------------------|
--------------------------------------------------|
--------------------------4--------4--------4-----|
--2--2--2--2--2--2--2--2--2--2--2--2--2--2--2--2--|
--------------------------------------------------|
--------------------------------------------------|

									3/4
  PM PM PM PM PM PM PM PM PM PM PM PM PM PM PM PM                                        
  S  S  S  S  S  S  S  S  S  S  S  S  S  S  S  S     H        Q    Q       H.            
--------------------------------------------------|---------------------|---------------|
--------------------------------------------------|---------------------|---------------|
--------------------------------------------------|--2--------2----4----|---------------|
--------------------------3--------3--------3-----|--2--------2----4----|--2------------|
--1--1--1--1--1--1--1--1--1--1--1--1--1--1--1--1--|--0--------0----2----|--2------------|
--------------------------------------------------|---------------------|--0------------|
--------------------------------------------------|---------------------|---------------|


           PM PM PM PM                             PM PM PM PM                  
  H        S  S  S  S     H.              H        S  S  S  S     H.            
-----------------------|---------------|-----------------------|---------------|
-----------------------|---------------|-----------------------|---------------|
-----------------------|--3------------|--3--------------------|--6------------|
--2--------------------|--3------------|--3--------------------|--6------------|
--2--------------------|--1------------|--1--------1--1--1--1--|--4------------|
--0--------0--0--0--0--|---------------|-----------------------|---------------|
-----------------------|---------------|-----------------------|---------------|


           PM PM PM PM                             PM PM PM PM  
  H        S  S  S  S     H.              H        S  S  S  S   
-----------------------|---------------|-----------------------|
-----------------------|---------------|-----------------------|
--6--------------------|--2------------|--2--------------------|
--6--------------------|--2------------|--2--------------------|
--4--------4--4--4--4--|--0------------|--0--------0--0--0--0--|
-----------------------|---------------|-----------------------|
-----------------------|---------------|-----------------------|

4/4
           PM PM PM PM PM PM PM PM    
  H        S  S  S  S  S  S  S  S     
------------------------------------||
------------------------------------||
--2--------------------------------*||
--2--------------------------------*||
--0--------0--0--0--0--0--0--0--0---||
------------------------------------||
------------------------------------||

Extra Guitar

*Drop D Tuning(D-A-D-G-B-e)

   6/4				 5/4		           4/4
     Q    Q    W                   Q    Q    H.              W                 
E||-----------------------------|-------------------------|-------------------|
B||-----------------------------|-------6-----------------|--8----------------|
G||-------5---------------------|------------7------------|-------------------|
D||--3---------7----------------|--8----------------------|-------------------|
A||-----------------------------|-------------------------|-------------------|
D||-----------------------------|-------------------------|-------------------|


    PM PM PM PM PM PM PM PM                 PM PM PM PM PM PM PM PM               
    S  S  S  S  S  S  S  S  S S S S Q       S  S  S  S  S  S  S  S  S S S S Q     
|----------------------------------------|---------------------------------------|
|----------------------------------------|---------------------------------------|
|*---------------------------------------|---------------------------------------|
|*---------------------------------------|---------------------------------------|
|----------------------------------------|---------------------------------------|
|---2--2--2--2--2--2--2--2/-7-x-8-7-L----|--2--2--2--2--2--2--2--2/-5-7-5-0-L----|


  PM PM PM PM PM PM PM PM                 PM PM PM PM PM PM PM PM               
  S  S  S  S  S  S  S  S  S S S S Q       S  S  S  S  S  S  S  S  S S S S Q     
---------------------------------------|---------------------------------------|
---------------------------------------|---------------------------------------|
---------------------------------------|---------------------------------------|
---------------------------------------|---------------------------------------|
---------------------------------------|---------------------------------------|
--2--2--2--2--2--2--2--2/-7-x-8-7-L----|--2--2--2--2--2--2--2--2/-5-7-5-0-L----|


  PM PM PM PM PM PM PM PM                 PM PM PM PM PM PM PM PM               
  S  S  S  S  S  S  S  S  S S S S Q       S  S  S  S  S  S  S  S  S S S S Q     
---------------------------------------|---------------------------------------|
---------------------------------------|---------------------------------------|
---------------------------------------|---------------------------------------|
---------------------------------------|---------------------------------------|
---------------------------------------|---------------------------------------|
--2--2--2--2--2--2--2--2/-7-x-8-7-L----|--2--2--2--2--2--2--2--2/-5-7-5-0-L----|


  PM PM PM PM PM PM PM PM                                                      
                                          |--3--|  |--3--|  |--3--|  |--3--|   
  S  S  S  S  S  S  S  S  S S S S Q       E  E  E  E  E  E  E  E  E  E  E  E   
---------------------------------------|--------------------------------------|
---------------------------------------|--------------------------------------|
---------------------------------------|--------------------------------------|
---------------------------------------|--------------------------------------|
---------------------------------------|--------------------------------------|
--2--2--2--2--2--2--2--2/-7-x-8-7-L----|--7--8--7--6--7--6--5--6--5--4--5--0--|


  PM PM PM PM PM PM PM PM                 PM PM PM PM PM PM PM PM               
  S  S  S  S  S  S  S  S  S S S S Q       S  S  S  S  S  S  S  S  S S S S Q     
---------------------------------------|---------------------------------------|
---------------------------------------|---------------------------------------|
---------------------------------------|---------------------------------------|
---------------------------------------|---------------------------------------|
---------------------------------------|---------------------------------------|
--2--2--2--2--2--2--2--2/-7-x-8-7-L----|--2--2--2--2--2--2--2--2/-5-7-5-0-L----|


  PM PM PM PM PM PM PM PM                                                      
                                          |--3--|  |--3--|  |--3--|  |--3--|   
  S  S  S  S  S  S  S  S  S S S S Q       E  E  E  E  E  E  E  E  E  E  E  E   
---------------------------------------|--------------------------------------|
---------------------------------------|--------------------------------------|
---------------------------------------|--------------------------------------|
---------------------------------------|--------------------------------------|
---------------------------------------|--------------------------------------|
--2--2--2--2--2--2--2--2/-7-x-8-7-L----|--7--8--7--6--7--6--5--6--5--4--5--0--|


  E   E   Q     E.  E.  E     Q.      E   E.   Q    S    E   E   Q     E.   E.  E   
---------------------------|--------------------------|----------------------------|
------8---8-----8---7---5--|--7------10--10-----------|-----10--10----10----8---6--|
------9---9-----9---7---5--|---------11--11---11------|-----10--10----10----9---7--|
-----10--10----10---9---7--|--9------12--12----9------|-----12--12----12---10---8--|
---------------------------|--------------------------|----------------------------|
---------------------------|--------------------------|----------------------------|

			3/4
   H         Q     Q       H.              H.              H.              H.            
------------------------|---------------|---------------|--1------------|--L------------|
---8---------8----10----|--0------------|--L------------|--2------------|--L------------|
---9---------9----11----|--0------------|--L------------|--3------------|--L------------|
--10--------10----12----|--2------------|--L------------|--3------------|--L------------|
------------------------|--2------------|--L------------|--1------------|--L------------|
------------------------|--2------------|--L------------|---------------|---------------|

								4/4
  H.              H.              H.              H.              W                   
--4------------|--L------------|--0------------|--L------------|--L-----------------||
--5------------|--L------------|--1------------|--L------------|--L-----------------||
--6------------|--L------------|--2------------|--L------------|--L----------------*||
--6------------|--L------------|--2------------|--L------------|--L----------------*||
--4------------|--L------------|--0------------|--L------------|--L-----------------||
---------------|---------------|---------------|---------------|--------------------||


Brass

   6/4				5/4			 4/4
     W                H           W                Q       W                 
E||----------------------------|------------------------|-------------------|
B||----------------------------|------------------------|-------------------|
G||----------------------------|------------------------|-------------------|
D||----------------------------|------------------------|-------------------|
A||----------------------------|------------------------|-------------------|
E||----------------------------|------------------------|-------------------|


    S S S S S S S S S S S S Q       S S S S S S S S S S S S Q       S S S S S S S S S S S S Q     
|--------------------------------|-------------------------------|-------------------------------|
|--------------------------------|-------------------------------|-------------------------------|
|*-------------------------------|-------------------------------|-------------------------------|
|*------------------7---8-7-L----|------------------5-7-5--------|------------------7---8-7-L----|
|---7-7-7-7-7-7-7-7---7----------|--7-7-7-7-7-7-7-7-------5-L----|--7-7-7-7-7-7-7-7---7----------|
|--------------------------------|-------------------------------|-------------------------------|


  S S S S S S S S S S S S Q       S S S S S S S S S S S S Q       S S S S S S S S S S S S Q     
-------------------------------|-------------------------------|-------------------------------|
-------------------------------|-------------------------------|-------------------------------|
-------------------------------|-------------------------------|-------------------------------|
------------------5-7-5--------|------------------7---8-7-L----|------------------5-7-5--------|
--7-7-7-7-7-7-7-7-------5-L----|--7-7-7-7-7-7-7-7---7----------|--7-7-7-7-7-7-7-7-------5-L----|
-------------------------------|-------------------------------|-------------------------------|


                                  |--3--|  |--3--|  |--3--|  |--3--|   
  S S S S S S S S S S S S Q       E  E  E  E  E  E  E  E  E  E  E  E   
-------------------------------|--------------------------------------|
-------------------------------|--------------------------------------|
-------------------------------|--------------------------------------|
------------------7---8-7-L----|--7--8--7--6--7--6--5--6--5--4--5-----|
--7-7-7-7-7-7-7-7---7----------|-----------------------------------5--|
-------------------------------|--------------------------------------|


  S S S S S S S S S S S S Q       S S S S S S S S S S S S Q       S S S S S S S S S S S S Q     
-------------------------------|-------------------------------|-------------------------------|
-------------------------------|-------------------------------|-------------------------------|
-------------------------------|-------------------------------|-------------------------------|
------------------7---8-7-L----|------------------5-7-5--------|------------------7---8-7-L----|
--7-7-7-7-7-7-7-7---7----------|--7-7-7-7-7-7-7-7-------5-L----|--7-7-7-7-7-7-7-7---7----------|
-------------------------------|-------------------------------|-------------------------------|


  |--3--|  |--3--|  |--3--|  |--3--|                                                                
  E  E  E  E  E  E  E  E  E  E  E  E     E   S S  E.  S  E.   E.   E      Q.      S S  E.   Q    S  
--------------------------------------|-----15---15-----15---14---12--|--14------17---17-----------|
--------------------------------------|-----17---17-----17---15---13--|--12------19---19---19------|
--------------------------------------|-----17---17-----17---16---14--|----------19---19-----------|
--7--8--7--6--7--6--5--6--5--4--5-----|-------------------------------|--------------------21------|
-----------------------------------5--|-------------------------------|----------------------------|
--------------------------------------|-------------------------------|----------------------------|

							3/4
  E   S S  Q     E.   E.   E      H         Q     Q       E.  E  S E  S S S S  
-----17---17----17---15---13--|--15--------15----17----|----------------------|
-----18---18----18---17---15--|--17--------17----19----|------8-----------8---|
-----19---19----19---17---15--|--17--------17----19----|--9------9-7--9-------|
------------------------------|------------------------|----------------------|
------------------------------|------------------------|----------------------|
------------------------------|------------------------|----------------------|


  E.  E  S E  S S S S     E.  E   S E   S S S S     E.  E   S E   S  S  S  S  
--------------------7-|-------9-------------9---|-------9-----------------13-|
------8---------7-8---|--11------11-9--11-------|--11------11-9--11-13-14----|
--9------9-7--9-------|-------------------------|----------------------------|
----------------------|-------------------------|----------------------------|
----------------------|-------------------------|----------------------------|
----------------------|-------------------------|----------------------------|


   E.   E   S  E   S S  S S     E.   E   S  E   S  S S S     E.   E   S  E   S S  S S  
--12---14--12-----12---14---|--12---14--12-----12-11-9---|----------------------------|
--------------14------------|--------------14----------9-|--10---13--10-----10---13---|
----------------------------|----------------------------|--------------12------------|
----------------------------|----------------------------|----------------------------|
----------------------------|----------------------------|----------------------------|
----------------------------|----------------------------|----------------------------|

			       4/4
   E.   E   S  E   S  S  S  S     W                   
---------------------------12-|--17-----------------||
--10---13--10--------12-13----|---------------------||
--------------12--14----------|--------------------*||
------------------------------|--------------------*||
------------------------------|---------------------||
------------------------------|---------------------||


Bass

     Q    Q    H        E  S E  S S S    H.           E  S E  S S S    W                 
G||-----------------------------------|-----------------------------|-------------------|
D||-----------------------------------|-----------------------------|-------------------|
A||-----------------------------------|-----------------------------|-------------------|
E||--3----3----3--------3----3----3-3-|--3------------3----3----3-3-|--3----------------|
B||-----------------------------------|-----------------------------|-------------------|


    S S S S S S S S S S S S Q       S S S S S S S S S S S S Q       S S S S S S S S S S S S Q     
|--------------------------------|-------------------------------|-------------------------------|
|*-------------------------------|-------------------------------|-------------------------------|
|--------------------------------|-------------------------------|-------------------------------|
|*--0-0-0-0-0-0-0-0-5-0-6-5-L----|--0-0-0-0-0-0-0-0-3-5-3--------|--0-0-0-0-0-0-0-0-5-0-6-5-L----|
|--------------------------------|------------------------3-L----|-------------------------------|


  S S S S S S S S S S S S Q       S S S S S S S S S S S S Q       S S S S S S S S S S S S Q     
-------------------------------|-------------------------------|-------------------------------|
-------------------------------|-------------------------------|-------------------------------|
-------------------------------|-------------------------------|-------------------------------|
--0-0-0-0-0-0-0-0-3-5-3--------|--0-0-0-0-0-0-0-0-5-0-6-5-L----|--0-0-0-0-0-0-0-0-3-5-3--------|
------------------------3-L----|-------------------------------|------------------------3-L----|


                                  |--3--|  |--3--|  |--3--|  |--3--|   
  S S S S S S S S S S S S Q       E  E  E  E  E  E  E  E  E  E  E  E   
-------------------------------|--------------------------------------|
-------------------------------|--------------------------------------|
-------------------------------|--------------------------------------|
--0-0-0-0-0-0-0-0-5-0-6-5-L----|--5--6--5--4--5--4--3--4--3--2--3-----|
-------------------------------|--------------------------------------|


  S S S S S S S S S S S S Q       S S S S S S S S S S S S Q       S S S S S S S S S S S S Q     
-------------------------------|-------------------------------|-------------------------------|
-------------------------------|-------------------------------|-------------------------------|
-------------------------------|-------------------------------|-------------------------------|
--0-0-0-0-0-0-0-0-5-0-6-5-L----|--0-0-0-0-0-0-0-0-3-5-3--------|--0-0-0-0-0-0-0-0-5-0-6-5-L----|
-------------------------------|------------------------3-L----|-------------------------------|


  |--3--|  |--3--|  |--3--|  |--3--|                                      
  E  E  E  E  E  E  E  E  E  E  E  E     S S S S S S S S S S S S S S S S  
--------------------------------------|----------------------------------|
--------------------------------------|------------------5-----5-----5---|
--------------------------------------|--3-3-3-3-3-3-3-3---3-3---3-3---3-|
--5--6--5--4--5--4--3--4--3--2--3-----|----------------------------------|
--------------------------------------|----------------------------------|


  S S S S S S S S S S S S S S S S    S S S S S S S S S S S S S S S S    H        Q    Q     
----------------------------------|----------------------------------|---------------------|
------------------4-----4-----4---|------------------3-----3-----3---|---------------------|
--2-2-2-2-2-2-2-2---2-2---2-2---2-|--1-1-1-1-1-1-1-1---1-1---1-1---1-|--0--------0----2----|
----------------------------------|----------------------------------|---------------------|
----------------------------------|----------------------------------|---------------------|


  E.  S E.  S Q       E.  S E.  S Q       E.  S E.  S Q       E.  S E.  S Q       E.  S E.  S Q     
-------------------|-------------------|------------3------|------------3------|-------------------|
------------2------|------------2------|------3------------|------3------------|-------------------|
------2------------|------2------------|--1-----1-----1----|--1-----1-----1----|------------4------|
--0-----0-----0----|--0-----0-----0----|-------------------|-------------------|------4------------|
-------------------|-------------------|-------------------|-------------------|--2-----2-----2----|


  E.  S E.  S Q       E.  S E.  S Q       E.  S E.  S Q       E.  S E.  S S S S S S S S S    
-------------------|------------2------|------------2------|------------2------------------||
-------------------|------2------------|------2------------|------2-----------------------*||
------------4------|--0-----0-----0----|--0-----0-----0----|--0-----0-----0-0-0-0-0-0-0-0--||
------4------------|-------------------|-------------------|------------------------------*||
--2-----2-----2----|-------------------|-------------------|-------------------------------||


The Solo Guitar one:

   6/4				     5/4			   4/4
     Q    Q    H        E.  E.  S S    Q    Q    Q    E.  E.  S S    W                 
E||---------------------------------|-----------------------------|-------------------|
B||---------------------------------|-------1---------------------|--3----------------|
G||-------2-------------------------|--0---------2----------------|--0----------------|
D||--0---------3--------------------|-----------------------------|--0----------------|
A||---------------------------------|-----------------------------|-------------------|
E||--3----3----3--------3---3---3-3-|--3--------------3---3---3-3-|--3----------------|


    PM PM PM PM PM PM PM PM                  PM PM PM PM PM PM PM PM                
    S  S  S  S  S  S  S  S  S S S  S Q       S  S  S  S  S  S  S  S  S S  S S Q     
|-----------------------------------------|----------------------------------------|
|-----------------------------------------|----------------------------------------|
|*--------------------------2---3p-2-L----|--------------------------0-2p-0--------|
|*-----2-----2-----2-----2----2-----------|-----2-----2-----2-----2---------0-L----|
|-----------------------------------------|----------------------------------------|
|---0-----0-----0-----0-------------------|--0-----0-----0-----0-------------------|


  PM PM PM PM PM PM PM PM                  PM PM PM PM PM PM PM PM                
  S  S  S  S  S  S  S  S  S S S  S Q       S  S  S  S  S  S  S  S  S S  S S Q     
----------------------------------------|----------------------------------------|
----------------------------------------|----------------------------------------|
--------------------------2---3p-2-L----|--------------------------0-2p-0--------|
-----2-----2-----2-----2----2-----------|-----2-----2-----2-----2---------0-L----|
----------------------------------------|----------------------------------------|
--0-----0-----0-----0-------------------|--0-----0-----0-----0-------------------|


  E.  S E  E  E.  S E  E     E.  S E  E  Q    Q       E.  S E  E  E.  S E  E   
--------------------------|------------------------|--------------------------|
------0-------------------|------------------------|------0----------------3--|
--------------3---2----0--|--2---0-----------------|--------------3---2-------|
--2--------2--------------|-----------2--0----1----|--2--------2--------------|
--------------------------|------------------------|--------------------------|
--0-----0-----0-----0-----|--0-----0-----0----0----|--0-----0-----0-----0-----|


  |--3--|  |--3--|  |--3--|  |--3--|                                                       
  E  E  E  E  E  E  E  E  E  E  E  E     E.  S E  E  E.  S E  E     E.  S E  E  Q    Q     
--------------------------------------|------0-------------------|------------------------|
--5--6--5--4--5--4--3--4--3--2--3-----|--0--------0--------------|-----------3------------|
-----------------------------------2--|--------------3---2----0--|--2---0-------2----3----|
--7--8--7--6--7--6--5--6--5--4--5--0--|--------------------------|------------------------|
--------------------------------------|--------------------------|------------------------|
--------------------------------------|--0-----0-----0-----0-----|--0-----0-----0----0----|
              
                                                                                                                                      ^                      
                             |--3--|  |--3--|  |--3--|  |--3--|                            
  E.  S E  E  E.  S E  E     E  E  E  E  E  E  E  E  E  E  E  E     E.  E.  E  E.  E.  E   
------0-------------------|-----6--------5--------4--------------|------------------------|
--0--------0-----------3--|--5-----5--4-----4--3-----3--2--------|--0---0---0--0----------|
--------------3---2-------|--------------------------------0--2--|--0----------L---2---0--|
--------------------------|--7--8--7--6--7--6--5--6--5--4--------|--2----------L----------|
--------------------------|--------------------------------------|--3----------3----------|
--0-----0-----0-----0-----|--------------------------------------|------------------------|

 									3/4
  ^                   ^      ^        ^             ^        ^    ^                            
  E.  E.  E  H        S S    H        E.  E.  E     H        Q    Q       E.  E  S E  S S S S  
------------------------0-|--1--------1---0------|--0--------0----2----|----------------------|
------3---L-----------3---|--3--------3-------3--|--1--------1----3----|----------------------|
--2-------L-----------2---|--2--------2-------L--|--0--------0----2----|------0-----------0---|
--4-------L-----------4---|--3--------3-------L--|--2--------2----4----|--2------2-0--2-------|
--2----------2------------|--1--------1----------|--0--------0----2----|----------------------|
--------------------------|----------------------|---------------------|--0-------------------|


  E.  E  S E  S S S S    E.  E  S E  S S S S    E.  E  S E  S S S S    E.  E  S E  E  S  S  
----------------------|----------------------|--------------------1-|--0---2--0------------|
--------------------0-|------2-----------2---|------2---------1-2---|--2---L----2--L--2h-4-|
------0-----------0---|--3------3-1--3-------|--3------3-1--3-------|----------------------|
--2------2-0--2-4-----|----------------------|----------------------|----------------------|
----------------------|--1-------------------|--1-----------1-------|--4-------------------|
--0-----------0-------|----------------------|----------------------|----------------------|

							       4/4
  E.  E  S E  S S S S    E.  E  S E  E  S S     H        Q       H        Q    E  E     
--0---2--0----0-------|--0-----------L--5-7-|---8-------------|--L--------------------||
-----------2----4-2---|------1--------------|--10-------------|--L--------------------||
--------------------1-|--2------2-0--2------|-----------------|----------------------*||
----------------------|---------------------|-----------------|----------------------*||
--4-----------4-------|--0------------------|---0--------0----|--0--------0----0--0---||
----------------------|---------------------|-----------------|-----------------------||






Duration Legend
---------------
W - whole
H - half
Q - quarter
E - 8th
S - 16th
T - 32nd
X - 64th
. - note dotted
|-n-|  - n-tuplets


Tablature Legend
----------------
L - tied note
x - dead note
PM - palm mute
^ - brush up
v - brush down
Login or Register to remove this ad.