Ads

Opening Stage X (Solo Guitar) (Mega Man X5) Guitar Tab

Submitted: Aug 31, 2015 by JordanVS

5
Average: 5 (1 vote)
Download | Listen
Game: Mega Man X5
Composer(s): Naoya Kamisaka, Naoto Tanaka, Takuya Miyawaki
Style: Arrangement, Fingerstyle
Series: Mega Man

AutoScroll: Slow | Medium | Fast
Opening Stage X                                                           
X's Intro Stage
Megaman X5
Naoto Tanaka, Naoya Kamisaka & Takuya Miyawaki 
JordanVS

Tempo : 150 ~ 4/4
*Tune Down 1 Step 
(D - G - C - F - A - d)


     E  E  E  E  E  E  E  E     E  E  E  E  E  E  E  E     E  E  E  E  E  E  E  E     E  E  E  E  E  E  E  E   
D||--------------------------|--------------------------|--------------------------|--------------------------|
A||--------1-----1--0--------|--------------------------|--------1-----1--0-----1--|--L--1--3-----------------|
F||--------0-----0--0-----0--|--L--0--2-----------------|--------0-----0--0-----0--|--L--0--4-----------------|
C||--0--0--0--0--0--0--0--0--|--0--0--0--0--0--0--0--0--|--0--0--0--0--0--0--0--0--|--0--0--0--0--------------|
G||--------------------------|--------------------------|--------------------------|--------------0--2--3--4--|
D||--------------------------|--------------------------|--------------------------|--------------------------|


  E  E  E  E  E  E  E  E     E  E  E  E  E  E  E  E     E  E  E  E  E  E  E  E     E  E  E  E  E  E  E  E   
--------1-----1--0--------|--------------------------|--------1-----1--0--------|--------------------------|
--------1-----1--1-----1--|--L--1--3-----------------|--------1-----1--1-----1--|--L-----------------------|
-----------------------0--|--L--0--4-----------------|-----------------------0--|--L-----------------------|
--0--0--0--0--0--0--0--0--|--0--0--0--0--0--0--0--0--|--0--0--0--0--0--0--0--0--|--0--0--0--0--0--0--0--0--|
--------------------------|--------------------------|--------------------------|--------------------------|
--------------------------|--------------------------|--------------------------|--------------------------|

                              *Segno
                                 ^                    ^                                  ^                    ^   
  E  E  E  E  E  E  E  S  S      E  E  E  E  E  E  E  E     E  E  E  E  E  E  E  S  S    E  E  E  E  E  E  E  E   
----------------------------||---------------------------|----------------------------|-----------------0--------|
--L-------------------------||---0-----------L-----0--2--|--L-----------------L--0h-2-|--3-----------3-----3--2--|
--L--------------------0h-2-||*--0-----------L--2-----2--|--L-----------------L-------|--4--------------------2--|
--0--0--0--0--0--0--L-------||*--2-----------L--------2--|--L-----------------L-------|--5--------------------2--|
----------------------------||---------------------------|----------------------------|--------------------------|
----------------------------||---0--0--0--0--0--0--0--0--|--0--0--0--0--0--0--0--0----|--0--0--0--0--0--0--0--0--|


                               ^                    ^                                 ^                        
  E  E  E  E  E  E  E  S  S    E  E  E  E  E  E  E  E     E  E  E  E  E  E  E  S S    E  E  E  E  E  E  E  E   
----------------------------|--------------------------|-------------------------0-|--3--2--0-----------------|
--L-------------------------|--0-----------L-----0--2--|--L-----------------L--3---|--0--------3--3--0--3--2--|
--L--------------------0h-2-|--0-----------L--2-----2--|--L-----------------L------|--0-----------0--------2--|
--L-------------------------|--2-----------L--------2--|--L-----------------L------|--------------------------|
----------------------------|--------------------------|---------------------------|--------------------------|
--0--0--0--0--0--0--0--0----|--0--0--0--0--0--0--0--0--|--0--0--0--0--0--0--0--0---|--0--0--0--0--0--0--0--0--|

1.                              2.
  S S  E  E  Q    E  E  S  S      S S  E  E  Q    E  Q       E  E  E  E  E  E  E  E     E  E  E  E  E  E  E  E   
------------------------------||--------------------------|--------------------------|--------0-----------------|
--L---------------------------||--------------------------|--------0-----------------|--------------3-----0-----|
--L---------------------0h-2-*||--------------------------|--------------2-----0-----|--------------------------|
-----------------------------*||--------------------------|--------------------------|--4-----------------------|
-------------0----4--0--------||-------------0----4--0----|--3--3--3--3--3--3--3--3--|--3--3--3--3--3--3--3--3--|
--0-0h-2--3-------------------||--0-0h-2--3---------------|--------------------------|--------------------------|


  E  E  E  E  E  E  E  E     E  E  E  E  E  E  E  E     E  E  E  E  E  E  E  E     E  E  E  E  E  E  E  E   
--------------------------|--------------------0-----|--1-----------------------|--------5-----1-----------|
--------------------------|--3-----------3-----------|--------3-----1-----------|--------------------3-----|
--2-----------0-----2-----|--------2-----------------|--------------------3-----|--2-----------------------|
--------4-----------------|--------------------------|--------------------------|--------------------------|
--2--2--2--2--2--2--2--2--|--2--2--2--2--2--2--2--2--|--1--1--1--1--1--1--1--1--|--1--1--1--1--1--1--1--1--|
--------------------------|--------------------------|--------------------------|--------------------------|


                             ^                                                                                
  E  E  E  E  E  E  E  E     S S E  E  Q    E  E  S  S    E  E  E  E  E  E  E  E     E  E  E  E  E  E  E  E   
--------------------------|----------------------------|--------------0--------0--|--1--3--1--0--L-----------|
--2-----------------3-----|--2--------------------0h-2-|--3--------3--------------|--------------------------|
--------0-----2-----------|--2-------------------------|-----2-----------2--------|--2--------0--L-----------|
--------------------------|--2-------------------------|--0--0--0--0--------------|--------------------------|
--0--0--0--0--0--0--0--0--|--0-0-0--0--0----2-----4----|--------------4--4--4--4--|--3--3--3--3--2--2--2--2--|
--------------------------|----------------------------|--------------------------|--------------------------|


  E  E  E  E  E  E  E  E     E  E  E  E  E  E  E  E     E  E  E  E  E  E  E  E     E  E  E  E  E  E  E  S  S  
-----3--5--3--0--------0--|--------------------0-----|--1--------1--3--------3--|--5--6--5--1----------------|
--3--------------1--------|--3-----------------2-----|-----3-----------3--------|-----------------------1s-2-|
--3-----L-----2--L--------|--------------------------|--2--L--------------------|-----------0----------------|
--------------------------|--------------------------|--0--0--0--0--------------|----------------------------|
--1--1--1--1--0--0--0--0--|--------------0--0--0--0--|--------------4--4--4--4--|--3--3--3--2--2--2--2-------|
--------------------------|--4--4--4--4--------------|--------------------------|----------------------------|


                                             *Da Coda               *D.S. al Coda  *Coda                        ^              
  E  E  E  E  E  E  E  E     E  E  E  E  E  E  E  E     E  E  E  E  E  E  E  S  S    E  E  E  E  E  E  Q        W                 
-----3--5--3--0--------0--|-----------------------1--|--3-------------------------|--3----------------------|--10----------------|
--3--------------1--------|--3-----------------L--3--|--5-------------------------|--5----------------------|--10----------------|
--3-----L-----2--L--------|--3-----------------L-----|-----------------------0h-2-|-------------------------|--10----------------|
--------------------------|--------------------------|----------------------------|-------------------------|---0----------------|
--1--1--1--1--0--0--0--0--|--1--1--1--1--1--1--1--1--|--3--3--3--3--3--3--L-------|--3--3--3--3--3--3--L----|--------------------|
--------------------------|--------------------------|----------------------------|-------------------------|--------------------|


  W                  
--L----------------||
--L----------------||
--L----------------||
--L----------------||
-------------------||
-------------------||




Duration Legend
---------------
W - whole
H - half
Q - quarter
E - 8th
S - 16th
T - 32nd
X - 64th
. - note dotted
|-n-|  - n-tuplets


Tablature Legend
----------------
L - tied note
< - fade in
^ - brush up
v - brush down
Login or Register to remove this ad.