Ads

Dark Dizzy (Mega Man X5) Bass/Guitar Tab

Submitted: Jul 22, 2015 by JordanVS

0
Download | Listen
Game: Mega Man X5
Composer(s): Naoya Kamisaka, Naoto Tanaka, Takuya Miyawaki
Style: 2 or more instruments, Transcription
Series: Mega Man

This song is also called Escape the Space Trap! / Dark Necrobat

AutoScroll: Slow | Medium | Fast
Dark Dizzy
Escape the Space Trap! / Dark Necrobat 
Mega Man X5
Naoto Tanaka , Naoya Kamisaka & Takuya Miyawaki
JordanVS

Tempo:130 ~4/4


Lead Guitar

           12x   W                    Q.     Q      E.  E.     W                    W                  
E||---------||---------------------|------------------------|--------------------|--------------------|
B||---------||--\9~----------------|--L------L\----\5-------|--4~----------------|--------------------|
G||*-------*||---------------------|--------------------6---|--------------------|--4~----------------|
D||*-------*||---------------------|------------------------|--------------------|--------------------|
A||---------||---------------------|------------------------|--------------------|--------------------|
E||---------||---------------------|------------------------|--------------------|--------------------|


   W                    Q.     Q       Q     S  S    W                    W                     W                  
---------------------|---------------\11----10p-9-|--7~----------------|--------------------|---------------------|
--\9~----------------|--L------L\-----------------|--------------------|--7~----------------|--\9~----------------|
---------------------|----------------------------|--------------------|--------------------|---------------------|
---------------------|----------------------------|--------------------|--------------------|---------------------|
---------------------|----------------------------|--------------------|--------------------|---------------------|
---------------------|----------------------------|--------------------|--------------------|---------------------|


  Q.     Q      E.  E.     W                    W                     W                    Q.     Q       Q     S  S  
------------------------|--------------------|--------------------|---------------------|---------------\11----10p-9-|
--L------L\----\5-------|--4~----------------|--------------------|--\9~----------------|--L------L\-----------------|
--------------------6---|--------------------|--4~----------------|---------------------|----------------------------|
------------------------|--------------------|--------------------|---------------------|----------------------------|
------------------------|--------------------|--------------------|---------------------|----------------------------|
------------------------|--------------------|--------------------|---------------------|----------------------------|


   W                     W                    E  E  E  E  E  E  E  E     E  E  E  E  E  E  E  E   
---------------------|--14~----------------|--------------------------|--------------------------|
--12~----------------|---------------------|-----------------------5--|--------------------------|
---------------------|---------------------|--6--6--6--6--6--6--6--6--|--6--6--6--6--6--6--5--4--|
---------------------|---------------------|--7--7--7--7--7--7--7-----|--7--7--7--7--7--7--6--5--|
---------------------|---------------------|--------------------------|--------------------------|
---------------------|---------------------|--------------------------|--------------------------|


  E  E  E  E  E  E  E  E     E  E  E  E  E  E  E  E     E  E  E  E  E  E  E  E     E  E  E  E  E  E  E  E   
--------------------------|--------------------------|--------------------------|--------------------------|
-----------------------2--|--------------------------|-----------------------5--|--------------------------|
--3--3--3--3--3--3--3--3--|--3--3--3--3--3--3--4--5--|--6--6--6--6--6--6--6--6--|--6--6--6--6--6--6--7--8--|
--4--4--4--4--4--4--4-----|--4--4--4--4--4--4--5--6--|--7--7--7--7--7--7--7-----|--7--7--7--7--7--7--8--9--|
--------------------------|--------------------------|--------------------------|--------------------------|
--------------------------|--------------------------|--------------------------|--------------------------|


   E   E   E   E   E   E   E  E      E   E   E   E   E   E  E  E     E  E  E  E  E  E  E  E   
---------------------------------|--------------------------------|--------------------------|
------------------------------8--|--------------------------------|-----------------------5--|
---9---9---9---9---9---9---9--9--|---9---9---9---9---9---9--8--7--|--6--6--6--6--6--6--6--6--|
--10--10--10--10--10--10--10-----|--10--10--10--10--10--10--9--8--|--7--7--7--7--7--7--7-----|
---------------------------------|--------------------------------|--------------------------|
---------------------------------|--------------------------------|--------------------------|


  E  E  E  E  E  E  E  E     E  E  E  E  E  E  E  E     E  E  E  E  E  E  E  E     E  E  E  E  E  E  E  E   
--------------------------|--------------------------|--------------------------|--------------------------|
--------------------------|-----------------------2--|--------------------------|-----------------------5--|
--6--6--6--6--6--6--5--4--|--3--3--3--3--3--3--3--3--|--3--3--3--3--3--3--4--5--|--6--6--6--6--6--6--6--6--|
--7--7--7--7--7--7--6--5--|--4--4--4--4--4--4--4-----|--4--4--4--4--4--4--5--6--|--7--7--7--7--7--7--7-----|
--------------------------|--------------------------|--------------------------|--------------------------|
--------------------------|--------------------------|--------------------------|--------------------------|

                                                                                          *Da Capo
  E  E  E  E  E  E  E  E      E   E   E   E   E   E   E  E      E   E   E   E   E   E   E   E    
--------------------------|---------------------------------|----------------------------------||
--------------------------|------------------------------8--|----------------------------------||
--6--6--6--6--6--6--7--8--|---9---9---9---9---9---9---9--9--|---9---9---9---9---9--11--11--11--||
--7--7--7--7--7--7--8--9--|--10--10--10--10--10--10--10-----|--10--10--10--10--10--12--12--12--||
--------------------------|---------------------------------|----------------------------------||
--------------------------|---------------------------------|----------------------------------||


Bass

                                     E  E  H.              H.           E  E     E  E  E  H        E   
G||-------|-------|-------|-------|---------------------|---------------------|-----------------------|
D||-------|-------|-------|-------|---------------------|---------------------|-----------------------|
A||-------|-------|-------|-------|---------------------|---------------0--0--|-----------------------|
E||-------|-------|-------|-------|--2--2---------------|---------------------|--2--0--2--------------|
B||-------|-------|-------|-------|---------------------|---------------------|-----------------------|


  H.           E  E     E  E  H.              H.           E  E     E  E  E  H        E     H.           E  E   
---------------------|---------------------|---------------------|-----------------------|---------------------|
---------------------|---------------------|---------------------|-----------------------|---------------------|
---------------0-----|---------------------|---------------0--0--|-----------------------|---------------0-----|
------------------2--|--2--2---------------|---------------------|--2--0--2--------------|------------------2--|
---------------------|---------------------|---------------------|-----------------------|---------------------|


  E  E  H.              H.           E  E     E  E  E  H        E     H.           E  E     E  E  H.            
---------------------|---------------------|-----------------------|---------------------|---------------------|
---------------------|---------------------|-----------------------|---------------------|---------------------|
---------------------|---------------0--0--|-----------------------|---------------0-----|---------------------|
--2--2---------------|---------------------|--2--0--2--------------|------------------2--|--2--2---------------|
---------------------|---------------------|-----------------------|---------------------|---------------------|


  H.           E  E     E  E  E  H        E     H.           E  E     E  E  H.              H.           E  E   
---------------------|-----------------------|---------------------|---------------------|---------------------|
---------------------|-----------------------|---------------------|---------------------|---------------------|
---------------0--0--|-----------------------|---------------0-----|---------------------|---------------0--0--|
---------------------|--2--0--2--------------|------------------2--|--2--2---------------|---------------------|
---------------------|-----------------------|---------------------|---------------------|---------------------|


  E  E  E  H        E     H.           E  E     E  E  H.              H.           E  E     E  E  E  H        E   
-----------------------|---------------------|---------------------|---------------------|-----------------------|
-----------------------|---------------------|---------------------|---------------------|-----------------------|
-----------------------|---------------0-----|---------------------|---------------0--0--|-----------------------|
--2--0--2--------------|------------------2--|--2--2---------------|---------------------|--2--0--2--------------|
-----------------------|---------------------|---------------------|---------------------|-----------------------|


  H.           E  E     E.  S E  E  H           H.           E  E     E.  S E  E  H           H.           E  E   
---------------------|-----------------------|---------------------|-----------------------|---------------------|
---------------------|--------4--------------|--4------------------|-----------------------|---------------------|
---------------0-----|-----------------------|---------------------|--------6--------------|--6------------------|
------------------2--|--2---2----2--L--------|---------------------|-----------------------|---------------0--1--|
---------------------|-----------------------|---------------6--5--|--4---4----4--L--------|---------------------|


  E.  S E  E  H           H.           E  E     E.  S E  E  H           H.           E  E   
-----------------------|---------------------|-----------------------|---------------------|
--------4--------------|--4------------------|-----------------------|--7------------------|
-----------------------|---------------------|--------7--------------|---------------------|
--2---2----2--L--------|---------------3--4--|--5---5----5--L--------|---------------------|
-----------------------|---------------------|-----------------------|---------------9--8--|


  E.  S E  S S E  E  S S S S    S E.  E.   E.  E  S S S S    E.  S E  S S E  E  S S S S    E  S E  S S E.  S S S S S S  
-----------------------------|----------------------------|-----------------------------|------------------------------|
-----------------------------|----7-----------------------|-----------------------------|------------------------------|
-----------8-9-------8-9-----|--------9-------------8---7-|-----------5-6-------5-6-----|----------5-6-----6-----7---8-|
-----------------------------|----------------------------|-----------------------------|------------------------------|
--7---7-7------7--7------7-7-|--7---------10---7--6---5---|--4---4-4------4--4------4-4-|--4--4-4------4-----4-5---6---|


  E.  S E  S S E  E  S S S S    S E.  E.   E.  E  S  S S  S     E.   S  E   S  S  E   E   S  S  S  S  
-----------------------------|------------------------------|----------------------------------------|
-----------------------------|----7-------------------------|----------------------------------------|
-----------8-9-------8-9-----|--------9-------------10---11-|--------------11-12---------11-12-------|
-----------------------------|------------------------------|----------------------------------------|
--7---7-7------7--7------7-7-|--7---------10---7--8----9----|--10---10-10--------10--10--------10-10-|

				*Da Capo
   E   S  E   S  S  E.  S  E  E   S   
------------------------------------||
--------------------------11-----11-||
-------------11-12------------------||
------------------------9-----9-----||
--10--10-10--------10---------------||


Glockenspiel/Polysynth (Capo 12)



      S S S  S S S  S S  S S S  S S S  S S     S S S  S S S  S S  S S S  S S S  S S  
E||--12--------9------9-12--------9------9-|--12--------9------9-12--------9------9-|
B||-------9-10---9-10--------9-10---9-10---|-------9-10---9-10--------9-10---9-10---|
G||-----9------------------9---------------|-----9------------------9---------------|
D||----------------------------------------|----------------------------------------|
A||----------------------------------------|----------------------------------------|
E||----------------------------------------|----------------------------------------|


   S S S  S S S  S S  S S S  S S S  S S     S S S  S S S  S S  S S S  S S S  S S  
--12--------9------9-12--------9------9-|--12--------9------9-12--------9------9-|
-------9-10---9-10--------9-10---9-10---|-------9-10---9-10--------9-10---9-10---|
-----9------------------9---------------|-----9------------------9---------------|
----------------------------------------|----------------------------------------|
----------------------------------------|----------------------------------------|
----------------------------------------|----------------------------------------|


   S S S  S S S  S S  S S S  S S S  S S     S S S  S S S  S S  S S S  S S S  S S  
--12--------9------9-12--------9------9-|--12--------9------9-12--------9------9-|
-------9-10---9-10--------9-10---9-10---|-------9-10---9-10--------9-10---9-10---|
-----9------------------9---------------|-----9------------------9---------------|
----------------------------------------|----------------------------------------|
----------------------------------------|----------------------------------------|
----------------------------------------|----------------------------------------|


   S S S  S S S  S S  S S S  S S S  S S     S S S  S S S  S S  S S S  S S S  S S  
--12--------9------9-12--------9------9-|--12--------9------9-12--------9------9-|
-------9-10---9-10--------9-10---9-10---|-------9-10---9-10--------9-10---9-10---|
-----9------------------9---------------|-----9------------------9---------------|
----------------------------------------|----------------------------------------|
----------------------------------------|----------------------------------------|
----------------------------------------|----------------------------------------|


   S S S  S S S  S S  S S S  S S S  S S     S S S  S S S  S S  S S S  S S S  S S  
--12--------9------9-12--------9------9-|--12--------9------9-12--------9------9-|
-------9-10---9-10--------9-10---9-10---|-------9-10---9-10--------9-10---9-10---|
-----9------------------9---------------|-----9------------------9---------------|
----------------------------------------|----------------------------------------|
----------------------------------------|----------------------------------------|
----------------------------------------|----------------------------------------|


   S S S  S S S  S S  S S S  S S S  S S     S S S  S S S  S S  S S S  S S S  S S  
--12--------9------9-12--------9------9-|--12--------9------9-12--------9------9-|
-------9-10---9-10--------9-10---9-10---|-------9-10---9-10--------9-10---9-10---|
-----9------------------9---------------|-----9------------------9---------------|
----------------------------------------|----------------------------------------|
----------------------------------------|----------------------------------------|
----------------------------------------|----------------------------------------|


   S S S  S S S  S S  S S S  S S S  S S     S S S  S S S  S S  S S S  S S S  S S  
--12--------9------9-12--------9------9-|--12--------9------9-12--------9------9-|
-------9-10---9-10--------9-10---9-10---|-------9-10---9-10--------9-10---9-10---|
-----9------------------9---------------|-----9------------------9---------------|
----------------------------------------|----------------------------------------|
----------------------------------------|----------------------------------------|
----------------------------------------|----------------------------------------|


   S S S  S S S  S S  S S S  S S S  S S     S S S  S S S  S S  S S S  S S S  S S  
--12--------9------9-12--------9------9-|--12--------9------9-12--------9------9-|
-------9-10---9-10--------9-10---9-10---|-------9-10---9-10--------9-10---9-10---|
-----9------------------9---------------|-----9------------------9---------------|
----------------------------------------|----------------------------------------|
----------------------------------------|----------------------------------------|
----------------------------------------|----------------------------------------|


   S S S  S S S  S S  S S S  S S S  S S     S S S  S S S  S S  S S S  S S S  S S  
--12--------9------9-12--------9------9-|--12--------9------9-12--------9------9-|
-------9-10---9-10--------9-10---9-10---|-------9-10---9-10--------9-10---9-10---|
-----9------------------9---------------|-----9------------------9---------------|
----------------------------------------|----------------------------------------|
----------------------------------------|----------------------------------------|
----------------------------------------|----------------------------------------|


   S S S  S S S  S S  S S S  S S S  S S     S S S  S S S  S S  S S S  S S S  S S  
--12--------9------9-12--------9------9-|--12--------9------9-12--------9------9-|
-------9-10---9-10--------9-10---9-10---|-------9-10---9-10--------9-10---9-10---|
-----9------------------9---------------|-----9------------------9---------------|
----------------------------------------|----------------------------------------|
----------------------------------------|----------------------------------------|
----------------------------------------|----------------------------------------|


   S S S  S S S  S S  S S S  S S S  S S     S S S  S S S  S S  S S S  S S S  S S  
--12--------9------9-12--------9------9-|--12--------9------9-12--------9------9-|
-------9-10---9-10--------9-10---9-10---|-------9-10---9-10--------9-10---9-10---|
-----9------------------9---------------|-----9------------------9---------------|
----------------------------------------|----------------------------------------|
----------------------------------------|----------------------------------------|
----------------------------------------|----------------------------------------|


   S S S  S S S  S S  S S S  S S S  S S     S S S  S S S  S S  S S S  S S S  S S  
--12--------9------9-12--------9------9-|--12--------9------9-12--------9------9-|
-------9-10---9-10--------9-10---9-10---|-------9-10---9-10--------9-10---9-10---|
-----9------------------9---------------|-----9------------------9---------------|
----------------------------------------|----------------------------------------|
----------------------------------------|----------------------------------------|
----------------------------------------|----------------------------------------|


   S S S  S S S  S S  S S S  S S S  S S     S S S  S S S  S S  S S S  S S S  S S  
--12--------9------9-12--------9------9-|--12--------9------9-12--------9------9-|
-------9-10---9-10--------9-10---9-10---|-------9-10---9-10--------9-10---9-10---|
-----9------------------9---------------|-----9------------------9---------------|
----------------------------------------|----------------------------------------|
----------------------------------------|----------------------------------------|
----------------------------------------|----------------------------------------|


   S S S  S S S  S S  S S S  S S S  S S     S S S  S S S  S S  S S S  S S S  S S     E   E   E   E   E   E   E   E   
--12--------9------9-12--------9------9-|--12--------9------9-12--------9------9-|------------------------------12--|
-------9-10---9-10--------9-10---9-10---|-------9-10---9-10--------9-10---9-10---|--14--14--14--14--14--14--14--14--|
-----9------------------9---------------|-----9------------------9---------------|--14--14--14--14--14--14--14------|
----------------------------------------|----------------------------------------|----------------------------------|
----------------------------------------|----------------------------------------|----------------------------------|
----------------------------------------|----------------------------------------|----------------------------------|


   E   E   E   E   E   E   E   E      E   E   E   E   E   E   E   E      E   E   E   E   E   E   E   E   
----------------------------------|-------------------------------9--|----------------------------------|
--14--14--14--14--14--14--13--12--|--11--11--11--11--11--11--11--11--|--11--11--11--11--11--11--12--13--|
--14--14--14--14--14--14--13--12--|--11--11--11--11--11--11--11------|--11--11--11--11--11--11--12--13--|
----------------------------------|----------------------------------|----------------------------------|
----------------------------------|----------------------------------|----------------------------------|
----------------------------------|----------------------------------|----------------------------------|


   E   E   E   E   E   E   E   E      E   E   E   E   E   E   E   E      E   E   E   E   E   E   E   E   
------------------------------12--|----------------------------------|------------------------------15--|
--14--14--14--14--14--14--14--14--|--14--14--14--14--14--14--15--16--|--17--17--17--17--17--17--17--17--|
--14--14--14--14--14--14--14------|--14--14--14--14--14--14--15--16--|--17--17--17--17--17--17--17------|
----------------------------------|----------------------------------|----------------------------------|
----------------------------------|----------------------------------|----------------------------------|
----------------------------------|----------------------------------|----------------------------------|


   E   E   E   E   E   E   E   E      E   E   E   E   E   E   E   E      E   E   E   E   E   E   E   E   
----------------------------------|------------------------------12--|----------------------------------|
--17--17--17--17--17--17--16--15--|--14--14--14--14--14--14--14--14--|--14--14--14--14--14--14--13--12--|
--17--17--17--17--17--17--16--15--|--14--14--14--14--14--14--14------|--14--14--14--14--14--14--13--12--|
----------------------------------|----------------------------------|----------------------------------|
----------------------------------|----------------------------------|----------------------------------|
----------------------------------|----------------------------------|----------------------------------|


   E   E   E   E   E   E   E   E      E   E   E   E   E   E   E   E      E   E   E   E   E   E   E   E   
-------------------------------9--|----------------------------------|------------------------------12--|
--11--11--11--11--11--11--11--11--|--11--11--11--11--11--11--12--13--|--14--14--14--14--14--14--14--14--|
--11--11--11--11--11--11--11------|--11--11--11--11--11--11--12--13--|--14--14--14--14--14--14--14------|
----------------------------------|----------------------------------|----------------------------------|
----------------------------------|----------------------------------|----------------------------------|
----------------------------------|----------------------------------|----------------------------------|

                                                                                              *Da Capo
   E   E   E   E   E   E   E   E      E   E   E   E   E   E   E   E      E   E   E   E   E   E   E   E    
----------------------------------|------------------------------15--|----------------------------------||
--14--14--14--14--14--14--15--16--|--17--17--17--17--17--17--17--17--|--17--17--17--17--17--19--19--19--||
--14--14--14--14--14--14--15--16--|--17--17--17--17--17--17--17------|--17--17--17--17--17--19--19--19--||
----------------------------------|----------------------------------|----------------------------------||
----------------------------------|----------------------------------|----------------------------------||
----------------------------------|----------------------------------|----------------------------------||


Glockenspiel/Polysynth (Capo 12)



      S  S  S  S  S  S  S  S  S  S  S  S  S  S  S  S     S  S  S  S  S  S  S  S  S  S  S  S  S  S  S  S  
E||--12----------------------12----------------------|--12----------------------12----------------------|
B||--------------14----------------------14----------|--------------14----------------------14----------|
G||-----13-14-13----13-14-13----13-14-13----13-14-13-|-----13-14-13----13-14-13----13-14-13----13-14-13-|
D||--------------------------------------------------|--------------------------------------------------|
A||--------------------------------------------------|--------------------------------------------------|
E||--------------------------------------------------|--------------------------------------------------|


   S  S  S  S  S  S  S  S  S  S  S  S  S  S  S  S     S  S  S  S  S  S  S  S  S  S  S  S  S  S  S  S  
--12----------------------12----------------------|--12----------------------12----------------------|
--------------14----------------------14----------|--------------14----------------------14----------|
-----13-14-13----13-14-13----13-14-13----13-14-13-|-----13-14-13----13-14-13----13-14-13----13-14-13-|
--------------------------------------------------|--------------------------------------------------|
--------------------------------------------------|--------------------------------------------------|
--------------------------------------------------|--------------------------------------------------|


   S  S  S  S  S  S  S  S  S  S  S  S  S  S  S  S     S  S  S  S  S  S  S  S  S  S  S  S  S  S  S  S  
--12----------------------12----------------------|--12----------------------12----------------------|
--------------14----------------------14----------|--------------14----------------------14----------|
-----13-14-13----13-14-13----13-14-13----13-14-13-|-----13-14-13----13-14-13----13-14-13----13-14-13-|
--------------------------------------------------|--------------------------------------------------|
--------------------------------------------------|--------------------------------------------------|
--------------------------------------------------|--------------------------------------------------|


   S  S  S  S  S  S  S  S  S  S  S  S  S  S  S  S     S  S  S  S  S  S  S  S  S  S  S  S  S  S  S  S  
--12----------------------12----------------------|--12----------------------12----------------------|
--------------14----------------------14----------|--------------14----------------------14----------|
-----13-14-13----13-14-13----13-14-13----13-14-13-|-----13-14-13----13-14-13----13-14-13----13-14-13-|
--------------------------------------------------|--------------------------------------------------|
--------------------------------------------------|--------------------------------------------------|
--------------------------------------------------|--------------------------------------------------|


   S  S  S  S  S  S  S  S  S  S  S  S  S  S  S  S     S  S  S  S  S  S  S  S  S  S  S  S  S  S  S  S  
--12----------------------12----------------------|--12----------------------12----------------------|
--------------14----------------------14----------|--------------14----------------------14----------|
-----13-14-13----13-14-13----13-14-13----13-14-13-|-----13-14-13----13-14-13----13-14-13----13-14-13-|
--------------------------------------------------|--------------------------------------------------|
--------------------------------------------------|--------------------------------------------------|
--------------------------------------------------|--------------------------------------------------|


   S  S  S  S  S  S  S  S  S  S  S  S  S  S  S  S     S  S  S  S  S  S  S  S  S  S  S  S  S  S  S  S  
--12----------------------12----------------------|--12----------------------12----------------------|
--------------14----------------------14----------|--------------14----------------------14----------|
-----13-14-13----13-14-13----13-14-13----13-14-13-|-----13-14-13----13-14-13----13-14-13----13-14-13-|
--------------------------------------------------|--------------------------------------------------|
--------------------------------------------------|--------------------------------------------------|
--------------------------------------------------|--------------------------------------------------|


   S  S  S  S  S  S  S  S  S  S  S  S  S  S  S  S     S  S  S  S  S  S  S  S  S  S  S  S  S  S  S  S  
--12----------------------12----------------------|--12----------------------12----------------------|
--------------14----------------------14----------|--------------14----------------------14----------|
-----13-14-13----13-14-13----13-14-13----13-14-13-|-----13-14-13----13-14-13----13-14-13----13-14-13-|
--------------------------------------------------|--------------------------------------------------|
--------------------------------------------------|--------------------------------------------------|
--------------------------------------------------|--------------------------------------------------|


   S  S  S  S  S  S  S  S  S  S  S  S  S  S  S  S     S  S  S  S  S  S  S  S  S  S  S  S  S  S  S  S  
--12----------------------12----------------------|--12----------------------12----------------------|
--------------14----------------------14----------|--------------14----------------------14----------|
-----13-14-13----13-14-13----13-14-13----13-14-13-|-----13-14-13----13-14-13----13-14-13----13-14-13-|
--------------------------------------------------|--------------------------------------------------|
--------------------------------------------------|--------------------------------------------------|
--------------------------------------------------|--------------------------------------------------|


   S  S  S  S  S  S  S  S  S  S  S  S  S  S  S  S     S  S  S  S  S  S  S  S  S  S  S  S  S  S  S  S  
--12----------------------12----------------------|--12----------------------12----------------------|
--------------14----------------------14----------|--------------14----------------------14----------|
-----13-14-13----13-14-13----13-14-13----13-14-13-|-----13-14-13----13-14-13----13-14-13----13-14-13-|
--------------------------------------------------|--------------------------------------------------|
--------------------------------------------------|--------------------------------------------------|
--------------------------------------------------|--------------------------------------------------|


   S  S  S  S  S  S  S  S  S  S  S  S  S  S  S  S     S  S  S  S  S  S  S  S  S  S  S  S  S  S  S  S  
--12----------------------12----------------------|--12----------------------12----------------------|
--------------14----------------------14----------|--------------14----------------------14----------|
-----13-14-13----13-14-13----13-14-13----13-14-13-|-----13-14-13----13-14-13----13-14-13----13-14-13-|
--------------------------------------------------|--------------------------------------------------|
--------------------------------------------------|--------------------------------------------------|
--------------------------------------------------|--------------------------------------------------|


   S  S  S  S  S  S  S  S  S  S  S  S  S  S  S  S     S  S  S  S  S  S  S  S  S  S  S  S  S  S  S  S  
--12----------------------12----------------------|--12----------------------12----------------------|
--------------14----------------------14----------|--------------14----------------------14----------|
-----13-14-13----13-14-13----13-14-13----13-14-13-|-----13-14-13----13-14-13----13-14-13----13-14-13-|
--------------------------------------------------|--------------------------------------------------|
--------------------------------------------------|--------------------------------------------------|
--------------------------------------------------|--------------------------------------------------|


   S  S  S  S  S  S  S  S  S  S  S  S  S  S  S  S     S  S  S  S  S  S  S  S  S  S  S  S  S  S  S  S  
--12----------------------12----------------------|--12----------------------12----------------------|
--------------14----------------------14----------|--------------14----------------------14----------|
-----13-14-13----13-14-13----13-14-13----13-14-13-|-----13-14-13----13-14-13----13-14-13----13-14-13-|
--------------------------------------------------|--------------------------------------------------|
--------------------------------------------------|--------------------------------------------------|
--------------------------------------------------|--------------------------------------------------|


   S  S  S  S  S  S  S  S  S  S  S  S  S  S  S  S     S  S  S  S  S  S  S  S  S  S  S  S  S  S  S  S  
--12----------------------12----------------------|--12----------------------12----------------------|
--------------14----------------------14----------|--------------14----------------------14----------|
-----13-14-13----13-14-13----13-14-13----13-14-13-|-----13-14-13----13-14-13----13-14-13----13-14-13-|
--------------------------------------------------|--------------------------------------------------|
--------------------------------------------------|--------------------------------------------------|
--------------------------------------------------|--------------------------------------------------|


   S  S  S  S  S  S  S  S  S  S  S  S  S  S  S  S     S  S  S  S  S  S  S  S  S  S  S  S  S  S  S  S  
--12----------------------12----------------------|--12----------------------12----------------------|
--------------14----------------------14----------|--------------14----------------------14----------|
-----13-14-13----13-14-13----13-14-13----13-14-13-|-----13-14-13----13-14-13----13-14-13----13-14-13-|
--------------------------------------------------|--------------------------------------------------|
--------------------------------------------------|--------------------------------------------------|
--------------------------------------------------|--------------------------------------------------|


  S  E   E   E   E   E   E   E   S    S  E   E   E   E   E   E   E   S    S  E   E   E   E   E   E   E   S  
--------------------------------12-|-----------------------------------|---------------------------------9-|
----14--14--14--14--14--14--14--14-|----14--14--14--14--14--14--13--12-|----11--11--11--11--11--11--11--11-|
----14--14--14--14--14--14--14-----|----14--14--14--14--14--14--13--12-|----11--11--11--11--11--11--11-----|
-----------------------------------|-----------------------------------|-----------------------------------|
-----------------------------------|-----------------------------------|-----------------------------------|
-----------------------------------|-----------------------------------|-----------------------------------|


  S  E   E   E   E   E   E   E   S    S  E   E   E   E   E   E   E   S    S  E   E   E   E   E   E   E   S  
-----------------------------------|--------------------------------12-|-----------------------------------|
----11--11--11--11--11--11--12--13-|----14--14--14--14--14--14--14--14-|----14--14--14--14--14--14--15--16-|
----11--11--11--11--11--11--12--13-|----14--14--14--14--14--14--14-----|----14--14--14--14--14--14--15--16-|
-----------------------------------|-----------------------------------|-----------------------------------|
-----------------------------------|-----------------------------------|-----------------------------------|
-----------------------------------|-----------------------------------|-----------------------------------|


  S  E   E   E   E   E   E   E   S    S  E   E   E   E   E   E   E   S    S  E   E   E   E   E   E   E   S  
--------------------------------15-|-----------------------------------|--------------------------------12-|
----17--17--17--17--17--17--17--17-|----17--17--17--17--17--17--16--15-|----14--14--14--14--14--14--14--14-|
----17--17--17--17--17--17--17-----|----17--17--17--17--17--17--16--15-|----14--14--14--14--14--14--14-----|
-----------------------------------|-----------------------------------|-----------------------------------|
-----------------------------------|-----------------------------------|-----------------------------------|
-----------------------------------|-----------------------------------|-----------------------------------|


  S  E   E   E   E   E   E   E   S    S  E   E   E   E   E   E   E   S    S  E   E   E   E   E   E   E   S  
-----------------------------------|---------------------------------9-|-----------------------------------|
----14--14--14--14--14--14--13--12-|----11--11--11--11--11--11--11--11-|----11--11--11--11--11--11--12--13-|
----14--14--14--14--14--14--13--12-|----11--11--11--11--11--11--11-----|----11--11--11--11--11--11--12--13-|
-----------------------------------|-----------------------------------|-----------------------------------|
-----------------------------------|-----------------------------------|-----------------------------------|
-----------------------------------|-----------------------------------|-----------------------------------|


  S  E   E   E   E   E   E   E   S    S  E   E   E   E   E   E   E   S    S  E   E   E   E   E   E   E   S  
--------------------------------12-|-----------------------------------|--------------------------------15-|
----14--14--14--14--14--14--14--14-|----14--14--14--14--14--14--15--16-|----17--17--17--17--17--17--17--17-|
----14--14--14--14--14--14--14-----|----14--14--14--14--14--14--15--16-|----17--17--17--17--17--17--17-----|
-----------------------------------|-----------------------------------|-----------------------------------|
-----------------------------------|-----------------------------------|-----------------------------------|
-----------------------------------|-----------------------------------|-----------------------------------|
		
			*Da Capo
  S  E   E   E   E   E   E   E   S   
-----------------------------------||
----17--17--17--17--17--19--19--19-||
----17--17--17--17--17--19--19--19-||
-----------------------------------||
-----------------------------------||
-----------------------------------||

FX



      W                   W                    W                   W                    W                 
E||--12----------------|--L----------------|--11----------------|--L----------------|--12----------------|
B||--14----------------|--L----------------|--12----------------|--L----------------|--14----------------|
G||--------------------|-------------------|--------------------|-------------------|--------------------|
D||--------------------|-------------------|--------------------|-------------------|--------------------|
A||--------------------|-------------------|--------------------|-------------------|--------------------|
E||--------------------|-------------------|--------------------|-------------------|--------------------|


  W                    W                   W                    W                   W                 
--L----------------|--11----------------|--L----------------|--12----------------|--L----------------|
--L----------------|--12----------------|--L----------------|--14----------------|--L----------------|
-------------------|--------------------|-------------------|--------------------|-------------------|
-------------------|--------------------|-------------------|--------------------|-------------------|
-------------------|--------------------|-------------------|--------------------|-------------------|
-------------------|--------------------|-------------------|--------------------|-------------------|


   W                   W                    W                   W                    W                 
--11----------------|--L----------------|--12----------------|--L----------------|--11----------------|
--12----------------|--L----------------|--14----------------|--L----------------|--12----------------|
--------------------|-------------------|--------------------|-------------------|--------------------|
--------------------|-------------------|--------------------|-------------------|--------------------|
--------------------|-------------------|--------------------|-------------------|--------------------|
--------------------|-------------------|--------------------|-------------------|--------------------|


  W                    W                   W                    W                   W                 
--L----------------|--12----------------|--L----------------|--11----------------|--L----------------|
--L----------------|--14----------------|--L----------------|--12----------------|--L----------------|
-------------------|--------------------|-------------------|--------------------|-------------------|
-------------------|--------------------|-------------------|--------------------|-------------------|
-------------------|--------------------|-------------------|--------------------|-------------------|
-------------------|--------------------|-------------------|--------------------|-------------------|


   W                   W                    W                   W                    W                 
--12----------------|--L----------------|--11----------------|--L----------------|--12----------------|
--14----------------|--L----------------|--12----------------|--L----------------|--14----------------|
--------------------|-------------------|--------------------|-------------------|--------------------|
--------------------|-------------------|--------------------|-------------------|--------------------|
--------------------|-------------------|--------------------|-------------------|--------------------|
--------------------|-------------------|--------------------|-------------------|--------------------|


  W                    W                   W                   Q    H.              Q    H.            
--L----------------|--11----------------|--L----------------|--------------------|--------------------|
--L----------------|--12----------------|--L----------------|-------9------------|--L-----------------|
-------------------|--------------------|-------------------|-------6------------|--L-----------------|
-------------------|--------------------|-------------------|-------7------------|--L-----------------|
-------------------|--------------------|-------------------|--------------------|--------------------|
-------------------|--------------------|-------------------|--------------------|--------------------|


  Q    H.              Q    H.              Q    H.              Q    H.              Q    H.            
--------------------|--------------------|--------------------|--------------------|-------7------------|
-------6------------|--L-----------------|-------9------------|--L-----------------|-------5------------|
-------3------------|--L-----------------|-------6------------|--L-----------------|-------5------------|
-------4------------|--L-----------------|-------7------------|--L-----------------|--------------------|
--------------------|--L-----------------|--------------------|--------------------|--------------------|
--------------------|--------------------|--------------------|--------------------|--------------------|


  Q    H.              Q    H.              Q    H.              Q    H.              Q    H.            
--L-----------------|--------------------|--------------------|--------------------|--------------------|
--L-----------------|-------9------------|--L-----------------|-------6------------|--L-----------------|
--L-----------------|-------6------------|--L-----------------|-------3------------|--L-----------------|
--------------------|-------7------------|--L-----------------|-------4------------|--L-----------------|
--------------------|--------------------|--------------------|--------------------|--L-----------------|
--------------------|--------------------|--------------------|--------------------|--------------------|

                                                                         *Da Capo
  Q    H.              Q    H.              Q    H.              Q    H.             
--------------------|--------------------|-------7------------|--L-----------------||
-------9------------|--L-----------------|-------5------------|--L-----------------||
-------6------------|--L-----------------|-------5------------|--L-----------------||
-------7------------|--L-----------------|--------------------|--------------------||
--------------------|--------------------|--------------------|--------------------||
--------------------|--------------------|--------------------|--------------------||


FX / Pad / Choir (Capo 12)



      Q    H.              W                    Q    H.              W                    Q    H.            
E||--12-----------------|-------------------|--11-----------------|-------------------|--12-----------------|
B||--14-----------------|-------------------|--12-----------------|-------------------|--14-----------------|
G||---------------------|-------------------|---------------------|-------------------|---------------------|
D||---------------------|-------------------|---------------------|-------------------|---------------------|
A||---------------------|-------------------|---------------------|-------------------|---------------------|
E||---------------------|-------------------|---------------------|-------------------|---------------------|


  W                    Q    H.              W                    Q    H.              W                 
-------------------|--11-----------------|-------------------|--12-----------------|-------------------|
-------------------|--12-----------------|-------------------|--14-----------------|-------------------|
-------------------|---------------------|-------------------|---------------------|-------------------|
-------------------|---------------------|-------------------|---------------------|-------------------|
-------------------|---------------------|-------------------|---------------------|-------------------|
-------------------|---------------------|-------------------|---------------------|-------------------|


   Q    H.              W                   E  E  E  E  E  E  E  E     E  E  E  E  E  E  E  E   
--11-----------------|-------------------|--9--------9--------9-----|--9--------9--------9-----|
--12-----------------|-------------------|-----9--------9--------9--|-----9--------9--------9--|
---------------------|-------------------|--------9--------9--------|--------9--------9--------|
---------------------|-------------------|--------------------------|--------------------------|
---------------------|-------------------|--------------------------|--------------------------|
---------------------|-------------------|--------------------------|--------------------------|


   E   E   E   E   E   E   E   E      E   E   E   E   E   E   E   E     E  E  E  E  E  E  E  E   
--11----------11----------11------|--11----------11----------11------|--9--------9--------9-----|
------12----------12----------12--|------12----------12----------12--|-----9--------9--------9--|
----------11----------11----------|----------11----------11----------|--------9--------9--------|
----------------------------------|----------------------------------|--------------------------|
----------------------------------|----------------------------------|--------------------------|
----------------------------------|----------------------------------|--------------------------|


  E  E  E  E  E  E  E  E      E   E   E   E   E   E   E   E      E   E   E   E   E   E   E   E   
--9--------9--------9-----|--11----------11----------11------|--11----------11----------11------|
-----9--------9--------9--|------12----------12----------12--|------12----------12----------12--|
--------9--------9--------|----------11----------11----------|----------11----------11----------|
--------------------------|----------------------------------|----------------------------------|
--------------------------|----------------------------------|----------------------------------|
--------------------------|----------------------------------|----------------------------------|


  E  E  E  E  E  E  E  E     E  E  E  E  E  E  E  E      E   E   E   E   E   E   E   E   
--9--------9--------9-----|--9--------9--------9-----|--11----------11----------11------|
-----9--------9--------9--|-----9--------9--------9--|------12----------12----------12--|
--------9--------9--------|--------9--------9--------|----------11----------11----------|
--------------------------|--------------------------|----------------------------------|
--------------------------|--------------------------|----------------------------------|
--------------------------|--------------------------|----------------------------------|


   E   E   E   E   E   E   E   E     E  E  E  E  E  E  E  E     E  E  E  E  E  E  E  E   
--11----------11----------11------|--9--------9--------9-----|--9--------9--------9-----|
------12----------12----------12--|-----9--------9--------9--|-----9--------9--------9--|
----------11----------11----------|--------9--------9--------|--------9--------9--------|
----------------------------------|--------------------------|--------------------------|
----------------------------------|--------------------------|--------------------------|
----------------------------------|--------------------------|--------------------------|


   E   E   E   E   E   E   E   E      E   E   E   E   E   E   E   E     W                   W                 
--11----------11----------11------|--11----------11----------11------|-------------------|-------------------|
------12----------12----------12--|------12----------12----------12--|-------------------|-------------------|
----------11----------11----------|----------11----------11----------|-------------------|-------------------|
----------------------------------|----------------------------------|--6----------------|--L----------------|
----------------------------------|----------------------------------|--4----------------|--L----------------|
----------------------------------|----------------------------------|--5----------------|--L----------------|


  W                   W                   W                   W                   W                   W                 
-------------------|-------------------|-------------------|-------------------|-------------------|-------------------|
-------------------|-------------------|-------------------|-------------------|--0----------------|--L----------------|
-------------------|-------------------|-------------------|-------------------|-------------------|-------------------|
--3----------------|--L----------------|--6----------------|--L----------------|--2----------------|--L----------------|
--1----------------|--L----------------|--4----------------|--L----------------|--3----------------|--L----------------|
--2----------------|--L----------------|--5----------------|--L----------------|-------------------|-------------------|


  W                   W                   W                   W                   W                   W                 
-------------------|-------------------|-------------------|-------------------|-------------------|-------------------|
-------------------|-------------------|-------------------|-------------------|-------------------|-------------------|
-------------------|-------------------|-------------------|-------------------|-------------------|-------------------|
--6----------------|--L----------------|--3----------------|--L----------------|--6----------------|--L----------------|
--4----------------|--L----------------|--1----------------|--L----------------|--4----------------|--L----------------|
--5----------------|--L----------------|--2----------------|--L----------------|--5----------------|--L----------------|

                                  *Da Capo
  W                   W                  
-------------------|-------------------||
--0----------------|--L----------------||
-------------------|-------------------||
--2----------------|--L----------------||
--3----------------|--L----------------||
-------------------|-------------------||


Duration Legend
---------------
W - whole
H - half
Q - quarter
E - 8th
S - 16th
T - 32nd
X - 64th
. - note dotted
|-n-|  - n-tuplets


Tablature Legend
----------------
L - tied note
x - dead note
g - grace note
h - hammer on
p - pull off
S - shift slide
s - legato slide
/ -  slide into from below or out of upwards
\ -  slide into from above or out of downwards
~ - vibrato
W - wide vibrato
^ - brush up
v - brush down
Login or Register to remove this ad.