Ads

Opening Stage Zero (Mega Man X4) Guitar Tab

Submitted: Sep 16, 2022 by Omnicide (Last updated: Sep 16, 2022)

5
Average: 5 (1 vote)
Download | Listen
Game: Mega Man X4
Composer(s): Toshihiko Horiyama
Style: Arrangement, Fingerstyle
Series: Mega Man

This song is also called Sky Lagoon, Zero's Theme

AutoScroll: Slow | Medium | Fast
Opening Stage Zero
Mega Man X4
Composed by Toshihiko Horiyama
Arranged by William Geesdorf


Standard Tuning 
(Capo 1)


     E  E  E  E  E  E  E  E     E  E  E  E  E  E  E  E   
E||--------------------------|--------------0-----------|
B||--------------3-----------|-----------2-----2--------|
G||-----------4-----4--------|--------2-----------2-----|
D||--------5-----------5-----|-----2-----------------2--|
A||-----5-----------------5--|--0-----------0-----------|
E||--3-----------3-----------|--------------------------|


  E  E  E  E  E  E  E  E     E  E  E  E  E  E  E  E   
--------------2-----------|--------------------------|
-----------3-----3--------|--------3-----3-----3-----|
--------4-----------4-----|--------4-----4-----4-----|
-----4-----------------4--|-----4-----4-----4--------|
--2-----------2-----------|--2-----------2-----------|
--------------------------|--------------------------|


  E  E  E  E  E  E  E  E     E.  E.  E  E  E  E  E     E  E  E  E  E  E  E  E   
--------------------------|------0---2--------------|--------------0-----------|
--0-----------2-----------|--3----------------------|--3-----------------------|
--------4-----------4-----|-------------------2-----|--------4-----------4-----|
-----4-----4-----4-----4--|----------------2-----2--|-----4-----4-----4-----4--|
--2-----------2-----------|--0----------0-----------|--2-----------2-----------|
--------------------------|-------------------------|--------------------------|


  Q.      S  S H            E  E  E  E  E  E  E  E     E.  E.  E  E  E  E  E   
--7~------5p-3-2~--------|--------------------------|-------------------------|
-------------------------|--0-----------2-----------|--2---3---5--------------|
-------------------------|--------4-----------4-----|-------------------2-----|
-------------------------|-----4-----4-----4-----4--|----------------2-----2--|
--0------------0---------|--2-----------2-----------|--4----------4-----------|
-------------------------|--------------------------|-------------------------|


  E  E  E  S S E  E  E  S  S    E  E  E  E  H         
-----------0-----------------|-----------------------|
--3-----3----3-2-----2--3p-2-|--0-----0--------------|
-----2------------2----------|--------------2--------|
--0------------0-------------|-----2-----2-----------|
-----------------------------|--4-----------4--------|
-----------------------------|-----------------------|


    E  E  E  E  E  E  E  E     E  E  E  E  E  E  Q     
|---------------------------|--0----------------------|
|---------0-----2-----3-----|-----------0-------------|
|*--------------------------|--------0--------0-------|
|*-----0-----0-----0-----0--|-----0--------------0----|
|---------------------------|-------------------------|
|---3-----------3-----------|--3-----------3----------|


  E  E  E  E  E  E  E  E     E  E  E  E  E  E  Q       E  E  E  E  E  E  E  E   
--------------------0-----|--3--------2--------0----|--------------------------|
--------2-----3-----------|-------------------------|--------0-----2-----3-----|
--------------------------|--------2----------------|--------------------------|
-----2-----2-----2-----2--|-----2-----------2-------|-----0-----0-----0-----0--|
--0-----------0-----------|--0-----------0----------|--------------------------|
--------------------------|-------------------------|--3-----------3-----------|


  E  E  E  E  E  E  E  E     E  E  E  E  E  E  Q       H        H         
--0-----------------0--2--|-------------------------|--2-----------------|
-----------3--------------|-----------3-------------|--3-----------------|
--------0-----------------|--------4--------4-------|--------------------|
-----0-----------0--------|-----4--------------4----|--------------------|
--------------------------|--2-----------2----------|--2--------2--------|
--3-----------3-----------|-------------------------|--------------------|


  E  E  E  E  E  E  E  E     Q    E.  S H           E  E  E  E  E  E  E  E   
--------------------------|----------------------|--------------------------|
--0-----------------------|--0----2---3----------|--3-----------------------|
--------4-----------4-----|----------------------|--------4-----------4-----|
-----4-----4-----4-----4--|----------------------|-----4-----4-----4-----4--|
--2-----------2-----------|--2----------2--------|--2-----------2-----------|
--------------------------|----------------------|--------------------------|


  Q    E.  S H           H        H           Q    E.  S H         
-------0---2----------|--------------------|-------0---2----------|
--3-------------------|--3-----------------|--3----2---3----------|
----------------------|--4-----------------|--4-------------------|
----------------------|--------------------|----------------------|
--2----------2--------|--2--------2--------|--2----------2--------|
----------------------|--------------------|----------------------|


  E.  E.  E  Q.     S   S     H         H        H         
------2---0--5------------|---7---------------------------|
--3----------2------8h-10-|---7---------------------------|
--------------------------|--(7)--------------------------|
--------------------------|-------------------------------|
--2----------2------------|-------------------------------|
--------------------------|---7---------7--------7--------|

  1st Ending
  Q    E  E  E  E  E  E     E  E  S  S E  E  E  E  E   
--2----0-----------0--2--|--3--5--7p-5-3--5--3--2--0--|
----------3-----3--------|----------------------------|
-------------2-----------|----------------------------|
-------------------------|----------------------------|
--2----------2-----------|--0-------------0-----------|
-------------------------|----------------------------|


  E  E  E  E  E  Q    E     E  E  E  E  E  E  E  E     E  E  E  E  E  E  E  E   
--2--0-----2-----0-------|--------------------------|--------------------------|
--------3-------------3--|--2--3--2--0-----0--2--3--|--------2-----3-----2-----|
-------------------------|--------------2-----------|--4--------------------4--|
-------------------------|--------------------------|-----4-----4-----4--------|
--2-----------2----------|--0-----------0-----------|--2-----------2-----------|
-------------------------|--------------------------|--------------------------|


  E  E  E  E  E  E  E  E     E  E  E  E  E  E  E  E   
-----3--2--0-----0--------|--------0-----2-----3-----|
--2-----------------3--2--|--3-----------------------|
--------------------------|-----2-----2-----2-----2--|
--------------------------|--0-----------0-----------|
--4-----------4-----------|--------------------------|
--------------------------|--------------------------|


                                       2nd Ending  ^                 
  S  S  S  S  S  S  S  S Q    Q          H         W                 
--5h-7p-5h-7p-5h-7p-5h-7-5----L\-----||------------2----------------|
-------------------------------------||------------2----------------|
------------------------------------*||------------4----------------|
------------------------------------*||------------4----------------|
--4----------------------4----L\-----||------------2----------------|
-------------------------------------||--7\-------------------------|


  W                  
--L----------------||
--L----------------||
--L----------------||
--L----------------||
--L----------------||
-------------------||




Duration Legend
---------------
W - whole
H - half
Q - quarter
E - 8th
S - 16th
T - 32nd
X - 64th
. - note dotted
|-n-|  - n-tuplets


Tablature Legend
----------------
L - tied note
(n) - ghost note (optional)
h - hammer on
p - pull off
\ -  slide into from above or out of downwards
~ - vibrato
^ - brush up
Login or Register to remove this ad.