Ads

Running Through the Cyber World (Mega Man Battle Network) Bass/Guitar Tab

Submitted: Jun 23, 2012 by Jacob31593 (Last updated: Jun 23, 2012)

5
Average: 5 (2 votes)
Download | Listen
Game: Mega Man Battle Network
Composer(s): Akari Kaida
Style: 2 or more instruments, Alternate picking, Arrangement, Pinch harmonics, Sweep picking, Transcription
Series: Mega Man

This song is also called Numberman's Stage

AutoScroll: Slow | Medium | Fast

Running Through the Cyber World from Mega Man Battle Network
Composed by Akari Kaida
Tabbed by Jacob31593
June 23rd 2012

This song is pretty much the main theme of the first two games
No idea why it plays on Numberman's stage but whatever

145BPM

Lead

     E   E   E   E   E.   E.   E      E.   E.   H         E     E   E   E   E   E.   E.   E      Q     Q     Q     Q     
E||-------------12--13---12-------|--13---12---15~--------L--|-------------------------------|--13----------------------|
B||-----13--15----------------13--|--------------------------|-----13--13--15--16---16---13--|--------16----15----------|
G||-------------------------------|--------------------------|-------------------------------|--------------------15----|
D||-------------------------------|--------------------------|-------------------------------|--------------------------|
A||-------------------------------|--------------------------|-------------------------------|--------------------------|
E||-------------------------------|--------------------------|-------------------------------|--------------------------|


  E   E   E   E   E.   E.   E      E.   E.   H         E     E   E   E   E   E.   E.   E      Q     Q     Q     Q     
-------------12--13---12-------|--13---12---15~--------L--|-------------------------------|--13----------------------|
-----13--15----------------13--|--------------------------|-----13--13--15--16---16---13--|--------16----15----------|
-------------------------------|--------------------------|-------------------------------|--------------------15----|
-------------------------------|--------------------------|-------------------------------|--------------------------|
-------------------------------|--------------------------|-------------------------------|--------------------------|
-------------------------------|--------------------------|-------------------------------|--------------------------|


   H         Q    Q       Q    Q     E.   E.   E      H          H             Q.      E   Q     Q     
-----------------------|--------------------------|------------------------|--------------------------|
--13~--------L---------|------------13--------13--|--16~--------16~--------|--15~---------13----------|
-----------------------|-----------------15-------|------------------------|--------------------15----|
-----------------------|--------------------------|------------------------|--------------------------|
-----------------------|--------------------------|------------------------|--------------------------|
-----------------------|--------------------------|------------------------|--------------------------|


   E.   E.   E   Q.       E      E.   E.   H          E      H          H             E.   E  S  H         E   
--15---13--------------------|--15---13------------------|------------------------|---------------------------|
------------16--15~------12--|------------16~--------15--|--16~--------13~--------|---------------------------|
-----------------------------|---------------------------|------------------------|--16---16----16~--------L--|
-----------------------------|---------------------------|------------------------|---------------------------|
-----------------------------|---------------------------|------------------------|---------------------------|
-----------------------------|---------------------------|------------------------|---------------------------|


   E   E   E   S  Q    S  E   E      E   E   E   S  Q    S  E   E      Q     Q     Q     Q        H         E   E   E   E   
--15--13------13-----------------|--15--13------13-----------------|--13----------------------|--18~--------L--16--15--16--|
----------16-----13----L-13--16--|----------16-----13----L-13--16--|--------16----15----------|----------------------------|
---------------------------------|---------------------------------|--------------------15----|----------------------------|
---------------------------------|---------------------------------|--------------------------|----------------------------|
---------------------------------|---------------------------------|--------------------------|----------------------------|
---------------------------------|---------------------------------|--------------------------|----------------------------|


   E   E   E   S  Q    S  E   E      E   E   E   S  Q    S  E   E      Q     Q     Q     Q        H         E  E   E   E   
--15--13------13-----------------|--15--13------13-----------------|--13----------------------|---------------------------|
----------16-----13----L-13--16--|----------16-----13----L-13--16--|--------16----15----------|--13~--------L-----13--16--|
---------------------------------|---------------------------------|--------------------15----|---------------------------|
---------------------------------|---------------------------------|--------------------------|---------------------------|
---------------------------------|---------------------------------|--------------------------|---------------------------|
---------------------------------|---------------------------------|--------------------------|---------------------------|


   E   E   E   S  Q    S  E   E      E   E   E   S  Q    S  E   E      E.   E.   E   E.   E.   E      E.   E.   E   E.   E.   E   
--15--13------13-----------------|--15--13------13-----------------|----------------13------------|--15---13-------13------------|
----------16-----13----L-13--16--|----------16-----13----L-13--15--|--16---15---13-------16---15--|------------16-------16---15--|
---------------------------------|---------------------------------|------------------------------|------------------------------|
---------------------------------|---------------------------------|------------------------------|------------------------------|
---------------------------------|---------------------------------|------------------------------|------------------------------|
---------------------------------|---------------------------------|------------------------------|------------------------------|


   W                    H        H         3x
---------------------|---------------------||
--13~----------------|--L------------------||
---------------------|--------------------*||
---------------------|--------------------*||
---------------------|---------------------||
---------------------|---------------------||


Harmony

                                                                      H          Q.      S  S     H         E   E   E   E   
E||-------|-------|-------|-------|-------|-------|-------|-------|---------------------------|----------------------------|
B||-------|-------|-------|-------|-------|-------|-------|-------|--16~--------15------16-15-|--13---------L--13--15--16--|
G||-------|-------|-------|-------|-------|-------|-------|-------|---------------------------|----------------------------|
D||-------|-------|-------|-------|-------|-------|-------|-------|---------------------------|----------------------------|
A||-------|-------|-------|-------|-------|-------|-------|-------|---------------------------|----------------------------|
E||-------|-------|-------|-------|-------|-------|-------|-------|---------------------------|----------------------------|


   Q     Q     Q     Q        Q.      H          S  S     E.   E.   E   Q.       E      E.   E.   H         E   
--15----13----15----13----|--13------15~--------13-15-|--18---16---15--13~----------|--------------------------|
--------------------------|---------------------------|-------------------------15--|--16---15---13------------|
--------------------------|---------------------------|-----------------------------|----------------------15--|
--------------------------|---------------------------|-----------------------------|--------------------------|
--------------------------|---------------------------|-----------------------------|--------------------------|
--------------------------|---------------------------|-----------------------------|--------------------------|


   Q     Q     Q     Q        E.   E  S  H         E                                               Q    Q    Q     E   E   
--------------------13----|--15---15----18~--------L--|-----|-----|-----|-----|-----|-----|-----|-------------------------|
--13----15----16----------|---------------------------|-----|-----|-----|-----|-----|-----|-----|---------------------13--|
--------------------------|---------------------------|-----|-----|-----|-----|-----|-----|-----|-----------------12------|
--------------------------|---------------------------|-----|-----|-----|-----|-----|-----|-----|-------------------------|
--------------------------|---------------------------|-----|-----|-----|-----|-----|-----|-----|-------------------------|
--------------------------|---------------------------|-----|-----|-----|-----|-----|-----|-----|-------------------------|


   E   E   E   S  Q    S  E   E      E   E   E   S  Q    S  E   E      E.   E.   E   E.   E.   E      E.   E.   E   E.   E.   E   
---------------------------------|---------------------------------|------------------------------|------------------------------|
--16--15--13--15-------------13--|--16--15--13--15-----------------|--13------------15---13-------|--16---15---13--15---13-------|
-----------------12----L-12------|-----------------12----L-12--15--|-------15---12------------15--|--------------------------15--|
---------------------------------|---------------------------------|------------------------------|------------------------------|
---------------------------------|---------------------------------|------------------------------|------------------------------|
---------------------------------|---------------------------------|------------------------------|------------------------------|


   W                    H        H         3x
---------------------|---------------------||
---------------------|---------------------||
--12~----------------|--L-----------------*||
---------------------|--------------------*||
---------------------|---------------------||
---------------------|---------------------||


Dont play this track you crazy mofo

      E.   E.   E   E.   E.   E      E.   E.   E   E.   E.   E      E.   E.   E   E.   E.   E      E.   E.   E   E.   E.   E   
E||------------------------------|------------------------------|------------------------------|----------------13------------|
B||--13---12---13--15---13-------|--13---12---13--15---13-------|--13--------13--13------------|--15---13---16-------16---15--|
G||--------------------------12--|--------------------------12--|-------15------------15---13--|------------------------------|
D||------------------------------|------------------------------|------------------------------|------------------------------|
A||------------------------------|------------------------------|------------------------------|------------------------------|
E||------------------------------|------------------------------|------------------------------|------------------------------|


   E.   E.   E   E.   E.   E      E.   E.   E   E.   E.   E      E.   E.   E   E.   E.   E      E.   E.   E   E.   E.   E   
------------------------------|------------------------------|------------------------------|----------------13------------|
--13---12---13--15---13-------|--13---12---13--15---13-------|--13--------13--13------------|--15---13---16-------16---15--|
--------------------------12--|--------------------------12--|-------15------------15---13--|------------------------------|
------------------------------|------------------------------|------------------------------|------------------------------|
------------------------------|------------------------------|------------------------------|------------------------------|
------------------------------|------------------------------|------------------------------|------------------------------|


   S  S  S  S  S  S  S  S  S  S  S  S  S  S  S  S     S  S  S  S  S  S  S  S  S  S  S  S  S  S  S  S  
-----------20----------20----------20----------20-|-----------20----------20----------20----------20-|
-----18-20-------18-20-------18-20-------18-20----|-----18-20-------18-20-------18-20-------18-20----|
--17----------17----------17----------17----------|--17----------17----------17----------17----------|
--------------------------------------------------|--------------------------------------------------|
--------------------------------------------------|--------------------------------------------------|
--------------------------------------------------|--------------------------------------------------|


   S  S  S  S  S  S  S  S  S  S  S  S  S  S  S  S     S  S  S  S  S  S  S  S  S  S  S  S  S  S  S  S  
-----------20----------20----------20----------20-|-----------18----------18----------18----------18-|
--------20----------20----------20----------20----|--------18----------18----------18----------18----|
-----20----------20----------20----------20-------|-----19----------19----------19----------19-------|
--18----------18----------18----------18----------|--17----------17----------17----------17----------|
--------------------------------------------------|--------------------------------------------------|
--------------------------------------------------|--------------------------------------------------|


   S  S  S  S  S  S  S  S  S  S  S  S  S  S  S  S     S  S  S  S  S  S  S  S  S  S  S  S  S  S  S  S  
-----------20----------20----------19----------19-|--------18-23-------18-23-------------------------|
--------20----------20----------18----------18----|-----20----------20----------------23----------23-|
-----20----------20----------19----------19-------|--17----------17-------------17-20-------17-20----|
--18----------18----------15----------15----------|--------------------------17----------17----------|
--------------------------------------------------|--------------------------------------------------|
--------------------------------------------------|--------------------------------------------------|


                                                        WHAT         THE     FUCK                           
                                                        PH           PH                                     
                                                        |---3---|    |--3--| |---3---| |--3--|              
   S  S  S  S  S  S  S  S  S  S  S  S  S  S  S  S       S   S   S    S  S  S S    S  S S  S  S E  E  E  E   
-----------20----------20----------20----------20-|--<>15s-13s-10------------------------------------------|
--------21----------21----------20----------20----|---------------<>11s-8s-3-8s---6s-4---------------------|
-----20----------20----------20----------20-------|------------------------------------8s-5s-4-------------|
--17----------17----------18----------18----------|--------------------------------------------------------|
--------------------------------------------------|--------------------------------------------------------|
--------------------------------------------------|--------------------------------------------------------|


   S  S  S  S  S  S  S  S  S  S  S  S  S  S  S  S     S  S  S  S  S  S  S  S  S  S  S  S  S  S  S  S  
-----------20----------20----------20----------20-|-----------20----------20----------20----------20-|
-----18-20-------18-20-------18-20-------18-20----|-----18-20-------18-20-------18-20-------18-20----|
--17----------17----------17----------17----------|--17----------17----------17----------17----------|
--------------------------------------------------|--------------------------------------------------|
--------------------------------------------------|--------------------------------------------------|
--------------------------------------------------|--------------------------------------------------|


   S  S  S  S  S  S  S  S  S  S  S  S  S  S  S  S     S  S  S  S  S  S  S  S  S  S  S  S  S  S  S  S  
-----------18----------18----------18----------18-|-----------18----------18----------18----------18-|
--------18----------18----------18----------18----|--------18----------18----------18----------18----|
-----19----------19----------19----------19-------|-----19----------19----------19----------19-------|
--20----------20----------20----------20----------|--20----------20----------20----------20----------|
--------------------------------------------------|--------------------------------------------------|
--------------------------------------------------|--------------------------------------------------|


   S  S  S  S  S  S  S  S  S  S  S  S  S  S  S  S     S  S  S  S  S  S  S  S  S  S  S  S  S  S  S  S  
-----------20----------20----------20----------20-|-----------20----------20----------20----------20-|
-----18-20-------18-20-------18-20-------18-20----|-----18-20-------18-20-------18-20-------18-20----|
--17----------17----------17----------17----------|--17----------17----------17----------17----------|
--------------------------------------------------|--------------------------------------------------|
--------------------------------------------------|--------------------------------------------------|
--------------------------------------------------|--------------------------------------------------|


   S  S  S  S  S  S  S  S  S  S  S  S  S  S  S  S     S  S  S  S  S  S  S  S  S  S  S  S  S  S  S  S  
-----------18----------18----------18----------18-|-----------20----------20----------20----------20-|
--------18----------18----------18----------18----|-----18-20-------18-20-------18-20-------18-20----|
-----19----------19----------19----------19-------|--17----------17----------17----------17----------|
--20----------20----------20----------20----------|--------------------------------------------------|
--------------------------------------------------|--------------------------------------------------|
--------------------------------------------------|--------------------------------------------------|


   S  S  S  S  S  S  S  S  S  S  S  S  S  S  S  S     S  S  S  S  S  S  S  S  S  S  S  S  S  S  S  S  
-----------20----------20----------20----------20-|-----------20----------20----------20----------20-|
-----18-20-------18-20-------18-20-------18-20----|-----18-20-------18-20-------18-20-------18-20----|
--17----------17----------17----------17----------|--17----------17----------17----------17----------|
--------------------------------------------------|--------------------------------------------------|
--------------------------------------------------|--------------------------------------------------|
--------------------------------------------------|--------------------------------------------------|


   S  S  S  S  S  S  S  S  S  S  S  S  S  S  S  S     S  S  S  S  S  S  S  S  S  S  S  S  S  S  S  S  
-----------20----------20----------18----------18-|-----------20----------20----------18----------18-|
--------20----------20----------18----------18----|--------20----------20----------18----------18----|
-----19----------19----------19----------19-------|-----20----------20----------19----------19-------|
--18----------18----------17----------17----------|--18----------18----------18----------18----------|
--------------------------------------------------|--------------------------------------------------|
--------------------------------------------------|--------------------------------------------------|


                                                        WHAT         THE     FUCK                             
                                                        PH           PH                                       
                                                        |---3---|    |--3--| |---3---| |--3--|                
   S  S  S  S  S  S  S  S  S  S  S  S  S  S  S  S       S   S   S    S  S  S S    S  S S  S  S E  E  E  E   3x
-----------20----------20----------20----------20-|--<>15s-13s-10-------------------------------------------||
-----18-20-------18-20-------18-20-------18-20----|---------------<>11s-8s-3-8s---6s-4----------------------||
--17----------17----------17----------17----------|------------------------------------8s-5s-4-------------*||
--------------------------------------------------|--------------------------------------------------------*||
--------------------------------------------------|---------------------------------------------------------||
--------------------------------------------------|---------------------------------------------------------||


I cant even hear these strings, but I know they're there >:(

      W                    W                    W                    W                    W                   W                 
E||--12----------------|---L----------------|--11----------------|--13----------------|--12----------------|--L----------------|
B||--13----------------|---L----------------|--13----------------|--13----------------|--13----------------|--L----------------|
G||--------------------|--------------------|--------------------|--------------------|--------------------|-------------------|
D||--------------------|--------------------|--------------------|--------------------|--------------------|-------------------|
A||--------------------|--------------------|--------------------|--------------------|--------------------|-------------------|
E||--------------------|--------------------|--------------------|--------------------|--------------------|-------------------|


   W                    W                    W                   W                    W                    W                 
--11----------------|--13----------------|--11----------------|--L----------------|--18----------------|---L----------------|
--13----------------|--13----------------|--------------------|-------------------|--------------------|--------------------|
--------------------|--------------------|--------------------|-------------------|--------------------|--------------------|
--------------------|--------------------|--------------------|-------------------|--------------------|--------------------|
--------------------|--------------------|--------------------|-------------------|--------------------|--------------------|
--------------------|--------------------|--------------------|-------------------|--------------------|--------------------|


   W                    W                    W                    H        Q    S  S  S  S     W                 
--15----------------|--20----------------|--------------------|--18--------L----L-15-16-18-|--20----------------|
--------------------|--------------------|--16----------------|----------------------------|--------------------|
--------------------|--------------------|--------------------|----------------------------|--------------------|
--------------------|--------------------|--------------------|----------------------------|--------------------|
--------------------|--------------------|--------------------|----------------------------|--------------------|
--------------------|--------------------|--------------------|----------------------------|--------------------|


  W                    W                   H.            Q        W                   W                    W                 
--L----------------|--18----------------|--L------------19----|--20----------------|--L----------------|--18----------------|
-------------------|--------------------|---------------------|--------------------|-------------------|--------------------|
-------------------|--------------------|---------------------|--------------------|-------------------|--------------------|
-------------------|--------------------|---------------------|--------------------|-------------------|--------------------|
-------------------|--------------------|---------------------|--------------------|-------------------|--------------------|
-------------------|--------------------|---------------------|--------------------|-------------------|--------------------|


  W                    W                   W                    H         H            H         H            W                 
--L----------------|--20----------------|--L----------------|--23--------22--------|--20--------18--------|--20----------------|
-------------------|--------------------|-------------------|----------------------|----------------------|--------------------|
-------------------|--------------------|-------------------|----------------------|----------------------|--------------------|
-------------------|--------------------|-------------------|----------------------|----------------------|--------------------|
-------------------|--------------------|-------------------|----------------------|----------------------|--------------------|
-------------------|--------------------|-------------------|----------------------|----------------------|--------------------|


  H        H         3x
--L------------------||
---------------------||
--------------------*||
--------------------*||
---------------------||
---------------------||

Bass

     E  E  E  E  E  E  E  E     E  E  E  E  E  E  E  E     E  E  E  E  E  E  E  E     E  E  E  E  E  E  E  E   
G||--------5-----------5-----|--------5-----------5-----|--------------------------|--------------------------|
D||--------------------------|--------------------------|--------6-----------6-----|--------8-----------8-----|
A||--3--3-----3--3--3-----3--|--3--3-----3--3--3-----3--|--------------------------|--------------------------|
E||--------------------------|--------------------------|--4--4-----4--4--4-----4--|--6--6-----6--6--6-----6--|


  E  E  E  E  E  E  E  E     E  E  E  E  E  E  E  E     E  E  E  E  E  E  E  E     E  E  E  E  E  E  E  E   
--------5-----------5-----|--------5-----------5-----|--------------------------|--------------------------|
--------------------------|--------------------------|--------6-----------6-----|--------8-----------8-----|
--3--3-----3--3--3-----3--|--3--3-----3--3--3-----3--|--------------------------|--------------------------|
--------------------------|--------------------------|--4--4-----4--4--4-----4--|--6--6-----6--6--6-----6--|


  E  E  E  E  E  E  E  E     E  E  E  E  E  E  E  E     E  E   E  E  E  E   E   E      E   E   E   E   E   E   E   E   
--------------------------|--------5-----------5-----|--------10-----------15------|----------------------------------|
--------6-----------8-----|--------------------------|--3--3---------8--8----------|----------13--------------13------|
--------------------------|--3--3-----3--3--3-----3--|------------8------------13--|----------------------------------|
--4--4-----4--6--6-----6--|--------------------------|-----------------------------|--11--11------11--11--11------11--|


   E   E   E   E   E   E   E   E      E   E   E   E   E   E   E   E      E   E   E   E   E   E   E   E   
----------------------------------|--------------------------15------|----------13--------------10------|
----------15--------------17------|----------------------------------|----------------------------------|
----------------------------------|--15--15--14--14--13--13------13--|--11--11------11------------------|
--13--13------13--15--15------15--|----------------------------------|------------------13--13------13--|


   E.   E  S  H          S  S     E   E   E   E   E   E   E   E      E   E   E   E   E   E   E   E   
------------------------------|----------17--------------17------|----------13--------------13------|
--11---11---------------------|--10--10--------------------------|----------------------------------|
-------------10~--------10-13-|--------------15--15--15------15--|--11--11------11--11--11------11--|
------------------------------|----------------------------------|----------------------------------|


   E   E   E   E   E   E   E   E      E   E   E   E   E   E   E   E      E   E   E   E   E   E   E   E   
----------15--------------15------|----------------------------------|----------17--------------17------|
----------------------------------|----------13------12--12----------|--10--10--------------------------|
--13--13------13--13--13------13--|--------------------------10--10--|--------------15--15--15------15--|
----------------------------------|--11--11------11------------------|----------------------------------|


   E   E   E   E   E   E   E   E      E   E   E   E   E   E   E   E      E   E   E   E   E   E   E   E   
----------13--------------13------|----------15--------------15------|----------17--------------17------|
----------------------------------|----------------------------------|----------------------------------|
--11--11------11--11--11------11--|--13--13------13--13--13------13--|--15--15------15--15--15------15--|
----------------------------------|----------------------------------|----------------------------------|


   E   E   E   E   E   E   E   E      E   E   E   E   E   E   E   E      E   E   E   E   E   E   E   E   
----------17--------------17------|----------13--------------13------|----------------------------------|
----------------------------------|----------------------------------|----------15--------------17------|
--15--15------15--15--15------15--|--11--11------11--11--11------11--|----------------------------------|
----------------------------------|----------------------------------|--13--13------13--15--15------15--|


   E   E   E   E   E   E   E   E      E   E   E   E   E   E   E   E     E  S S S S S S S S S S S S S S  3x
----------13--------------15------|----------17--------------17------|----------------------------------||
----------------------------------|----------------------------------|---------------------------------*||
--11--11------11--13--13------13--|--15--15------15--15--15------15--|--3--3-3-3-3-3-3-----------------*||
----------------------------------|----------------------------------|----------------------------------||


Duration Legend
---------------
W - whole
H - half
Q - quarter
E - 8th
S - 16th
. - note dotted
|-n-|  - n-tuplets


Tablature Legend
----------------
L - tied note
PH - pitch harmonic
s - legato slide
~ - vibrato
Login or Register to remove this ad.

1 comment on Running Through the Cyber World

WHAT THE FUCK

5

WHAT THE FUCK