Fire Field (Mega Man Battle Network) Bass/Guitar Tab

Submitted: Jun 05, 2012 by Jacob31593 (Last updated: Jun 05, 2012)

5
Average: 5 (3 votes)
Download | Listen
Game: Mega Man Battle Network
Composer(s): Akari Kaida
Style: 2 or more instruments, Alternate picking, Arrangement, Sweep picking, Transcription
Series: Mega Man

This song is also called Fireman's Stage

AutoScroll: Slow | Medium | Fast

Fire Field from Mega Man Battle Network
Composed by Akari Kaida
Tabbed by Jacob31593
June 6th 2012

The first game probably had the best normal stage themes~
140 bpm

Lead

      S  S       E.   S E   S  S  E.   S E   S  S     E.   S E   S  S  E.   E.   E      E.   S  S   S  Q     Q    E   
E||--------||-------------------------------------|---------------------------------|--------------------------------|
B||--------||---13---13---------------------------|---------------------------------|--------------------------------|
G||--------||*-------------------15---15----------|--13---13----12--------------13--|--12----------------------------|
D||--13-15-||*-------------13-15------------13-15-|----------------15-13---15-------|-------13-----------------------|
A||--------||-------------------------------------|---------------------------------|----------13s-15-15~----L----L--|
E||--------||-------------------------------------|---------------------------------|--------------------------------|


  H        Q.      S  S     E.   S E   S  S  E.   S E   S  S     E.   S E   S  S  E.   E.   E      W                  
------------------------|------------------------------------|---------------------------------|---------------------|
------------------------|--13---13---------------------------|---------------------------------|--13~----------------|
------------------------|-------------------15---15----------|--13---13----12----12---13---15--|---------------------|
------------------13-15-|-------------13-15------------13-15-|----------------15---------------|---------------------|
--L---------------------|------------------------------------|---------------------------------|---------------------|
------------------------|------------------------------------|---------------------------------|---------------------|


  H            E.   E.   E      H         E   E   E   E      E.   E.   E   H            H         E.   E.   E   
----------------------------|--13~--------L--13--15--16--|--18---15-----------------|--------------------------|
--L--------12g13---14---16--|----------------------------|------------18--16--------|--14--------14---18---16--|
----------------------------|----------------------------|--------------------------|--------------------------|
----------------------------|----------------------------|--------------------------|--------------------------|
----------------------------|----------------------------|--------------------------|--------------------------|
----------------------------|----------------------------|--------------------------|--------------------------|


   E.   E.   H        S S     H            E.   E.   E      E.   E.   E   E.   E.   E      H            E.   E.   E   
--------------------------|-----------------------------|--------------------------18--|--20--------19g20---23---21--|
--15----------------------|-----------------------------|--18--------18--20---21-------|-----------------------------|
-------14-----------------|--17--------16g17---18---20--|-------20---------------------|-----------------------------|
------------15--------L---|-----------------------------|------------------------------|-----------------------------|
--------------------------|-----------------------------|------------------------------|-----------------------------|
--------------------------|-----------------------------|------------------------------|-----------------------------|


   T  T  H.           S  S  S     E.   S E   S  S  E.   S E   S  S     E.   S E   S  S  E.   E.   E   
--20-21-20--------------------|------------------------------------|---------------------------------|
------------------------------|--13---13---------------------------|---------------------------------|
------------------------------|-------------------15---15----------|--13---13----12--------------13--|
------------------------13-15-|-------------13-15------------13-15-|----------------15-13---15-------|
------------------------------|------------------------------------|---------------------------------|
------------------------------|------------------------------------|---------------------------------|


   E.   S  S   S  Q     Q    E     H        Q.      S  S     E.   S E   S  S  E.   S E   S  S     E.   S E   S  S  E.   E.   E   
--------------------------------|------------------------|------------------------------------|---------------------------------|
--------------------------------|------------------------|--13---13---------------------------|---------------------------------|
--12----------------------------|------------------------|-------------------15---15----------|--13---13----12----12---13---15--|
-------13-----------------------|------------------13-15-|-------------13-15------------13-15-|----------------15---------------|
----------13s-15-15~----L----L--|--L---------------------|------------------------------------|---------------------------------|
--------------------------------|------------------------|------------------------------------|---------------------------------|


   W                    H            Q     E.   S                                       Q    Q    Q    E   S  S  3x
---------------------|-------------------------13-|----|----|----|----|----|----|----|---------------------------||
--13~----------------|--L--------12g13----16------|----|----|----|----|----|----|----|---------------------------||
---------------------|----------------------------|----|----|----|----|----|----|----|--------------------------*||
---------------------|----------------------------|----|----|----|----|----|----|----|--------------------13-15-*||
---------------------|----------------------------|----|----|----|----|----|----|----|---------------------------||
---------------------|----------------------------|----|----|----|----|----|----|----|---------------------------||

Harmony1

                                       Q    Q    Q    E   S  S     E.   S E   S  S  E.   S E   S  S  
E||-------||--------|-------|-------|--------------------------|------------------------------------|
B||-------||--------|-------|-------|--------------------------|------------------------------------|
G||-------||*-------|-------|-------|--------------------------|--13---13----------12---12----------|
D||-------||*-------|-------|-------|--------------------13-10-|-------------13-10------------13-10-|
A||-------||--------|-------|-------|--------------------------|------------------------------------|
E||-------||--------|-------|-------|--------------------------|------------------------------------|


   E.   S E   S  S  E.   E.   E      W                    H         E.   E   T. T. T. T.    H        E   E.   E.   
---------------------------------|---------------------|--------------------13-15-16-18-|--20--------L--18---16---|
---------------------------------|---------------------|--------------------------------|-------------------------|
--10---10---------------10---12--|--13~----------------|--L--------13---15--------------|-------------------------|
-------------13-12-13------------|---------------------|--------------------------------|-------------------------|
---------------------------------|---------------------|--------------------------------|-------------------------|
---------------------------------|---------------------|--------------------------------|-------------------------|


   W                    W                    Q.      H        T  T  T  T     H        E   E.   E.      H        E   E.   E.   
--15----------------|--------------------|----------------------15-16-18-|--20--------L--18---16---|--15--------L-------15---|
--------------------|--18----------------|--16------15-------------------|-------------------------|---------------18--------|
--------------------|--------------------|-------------------------------|-------------------------|-------------------------|
--------------------|--------------------|-------------------------------|-------------------------|-------------------------|
--------------------|--------------------|-------------------------------|-------------------------|-------------------------|
--------------------|--------------------|-------------------------------|-------------------------|-------------------------|


   H         E   E.   E.      Q.      T  T  T  T  H                             Q    Q    Q    E   S  S  
--16--------16--20---18---|--20------18-16-15--------------|-----|-----|-----|--------------------------|
--------------------------|-------------------18-17--------|-----|-----|-----|--------------------------|
--------------------------|--------------------------------|-----|-----|-----|--------------------------|
--------------------------|--------------------------------|-----|-----|-----|--------------------13-10-|
--------------------------|--------------------------------|-----|-----|-----|--------------------------|
--------------------------|--------------------------------|-----|-----|-----|--------------------------|


   E.   S E   S  S  E.   S E   S  S     E.   S E   S  S  E.   E.   E      W                     H          Q     E.   S       
------------------------------------|---------------------------------|---------------------|---------------------------|----|
------------------------------------|---------------------------------|---------------------|------------------------13-|----|
--13---13----------12---12----------|--10---10---------------10---12--|--13~----------------|--12~--------12----15------|----|
-------------13-10------------13-10-|-------------13-12-13------------|---------------------|---------------------------|----|
------------------------------------|---------------------------------|---------------------|---------------------------|----|
------------------------------------|---------------------------------|---------------------|---------------------------|----|


                                   3x
----|----|----|----|----|----|-----||
----|----|----|----|----|----|-----||
----|----|----|----|----|----|----*||
----|----|----|----|----|----|----*||
----|----|----|----|----|----|-----||
----|----|----|----|----|----|-----||


Harmony2

                W                     W                     W                     H          H             W                  
E||-------||----------------------|---------------------|---------------------|------------------------|---------------------|
B||-------||---16~----------------|--15~----------------|--16~----------------|--15~--------18~--------|--16~----------------|
G||-------||*---------------------|---------------------|---------------------|------------------------|---------------------|
D||-------||*---------------------|---------------------|---------------------|------------------------|---------------------|
A||-------||----------------------|---------------------|---------------------|------------------------|---------------------|
E||-------||----------------------|---------------------|---------------------|------------------------|---------------------|


   W                     W                     H          H             S  S  S  S  S  S  S  S  S  S  S  S  S  S  S  S  
---------------------|---------------------|------------------------|--------------------------------------------------|
--15~----------------|--16~----------------|--15~--------18~--------|-----14----14----14----------14----14----14-------|
---------------------|---------------------|------------------------|--------------------------------------------------|
---------------------|---------------------|------------------------|--11----11----11----10-10-11----11----11----10-11-|
---------------------|---------------------|------------------------|--------------------------------------------------|
---------------------|---------------------|------------------------|--------------------------------------------------|


   S  S  S  S  S  S S  S  S  S  S  S  S  S S  S    S  S S  S S  S S S S  S S  S S  S S S  
------------------------------------------------|----------------------------------------|
-----13----13----13---------13----13----13------|----12---12---12-------12---12---12-----|
------------------------------------------------|----------------------------------------|
--10----10----10----9-10-10----10----10----9-10-|--9----9----9----8-9-9----9----9----8-9-|
------------------------------------------------|----------------------------------------|
------------------------------------------------|----------------------------------------|


  S  S S  S S  S S S S  S S  S S  S S S     S  S  S  S  S  S  S  S  S  S  S  S  S  S  S  S  
----------------------------------------|--------------------------------------------------|
----10---10---10-------10---10---10-----|-----14----14----14----------14----14----14-------|
-----------------0------------------0---|--------------------------------------------------|
--7----7----7------7-7----7----7------7-|--11----11----11----10-10-11----11----11----10-11-|
----------------------------------------|--------------------------------------------------|
----------------------------------------|--------------------------------------------------|


   S  S  S  S  S  S S  S  S  S  S  S  S  S S  S     S  S  S  S  S  S  S  S  S  S  S  S  S  S  S  S  
------------------------------------------------|--------------------------------------------------|
-----13----13----13---------13----13----13------|--------------------------------------------------|
------------------------------------------------|-----13----13----13----------13----13----13-------|
--10----10----10----9-10-10----10----10----9-10-|--------------------------------------------------|
------------------------------------------------|--11----11----11----10-11-11----11----11----10-11-|
------------------------------------------------|--------------------------------------------------|


  S  S S  S S  S S  S  S  S  S  S  S  S S S     W                     W                     W                  
--------------------------------------------|---------------------|---------------------|---------------------|
--------------------------------------------|--16~----------------|--15~----------------|--16~----------------|
----10---10---10---------13----13----13-----|---------------------|---------------------|---------------------|
--------------------------------------------|---------------------|---------------------|---------------------|
--8----8----8----8-10-11----11----11--------|---------------------|---------------------|---------------------|
--------------------------------------------|---------------------|---------------------|---------------------|


   H          H             W                     W                     W                     H          Q     E.   S            
------------------------|---------------------|---------------------|---------------------|---------------------------|----|----|
--15~--------18~--------|--16~----------------|--15~----------------|--16~----------------|--17~--------------16---18-|----|----|
------------------------|---------------------|---------------------|---------------------|-------------17------------|----|----|
------------------------|---------------------|---------------------|---------------------|---------------------------|----|----|
------------------------|---------------------|---------------------|---------------------|---------------------------|----|----|
------------------------|---------------------|---------------------|---------------------|---------------------------|----|----|


   E.   E.   E   E.   E.   E      E.   E.   E   E.   E.  E                E.   E.   E   E.   E.   E   
--11---10---11--13---11---10--|--11---10---11--13---15------|----|----|--11---10---11--13---11---13--|
--13---11---13--15---13---11--|--13---11---13--15---16------|----|----|--13---11---13--15---13---15--|
------------------------------|-----------------------------|----|----|------------------------------|
------------------------------|-----------------------------|----|----|------------------------------|
------------------------------|-----------------------------|----|----|------------------------------|
------------------------------|-----------------------------|----|----|------------------------------|


   E.   E.   E  E  E  E  E   3x
--15---13---15---------------||
--16---15---16---------------||
----------------------------*||
----------------------------*||
-----------------------------||
-----------------------------||


Crazy Awesome Slidey Bass

                E  S  E  S  E  S S  S  S  S  S  S  S     S  S S  S S S  S S S S  S  S  S  E   S  
G||-------||-----------------------------------------|--------------------------------13--------|
D||-------||*----------------------13-15-------13-15-|--------------------------13-15----17--17-|
A||-------||*----------------------------13-15-------|------------------------------------------|
E||-------||---13----13----13------------------------|--13-13---16-----13-----------------------|


   S  S  S  S  S  S  S  S  S  S  S  S S    E   S     S  S  S  S S S  S S S S    Q     S  S  
--------------15-17---------------------3g15--13-|---------------------------8g17-------13-|
--------13-15------------------------------------|-----------------------------------15----|
--------------------13-15-------13---------------|-----------------------------------------|
--13-13-------------------16-16----16------------|--13-13-13-11-----13---------------------|


   E  S  E  S  E  S S  S  S  S  S  S  S     S  S S  S S S  S S S S  S  S  S  E   S  
----------------------------------------|--------------------------------13--------|
----------------------13-15-------13-15-|--------------------------13-15----17--17-|
----------------------------13-15-------|------------------------------------------|
--13----13----13------------------------|--13-13---16-----13-----------------------|


   S  S  S  S  S  S  S  S  S  S  S  S S    E   S     S  S  S  S S S  S S S S    Q     S  S  
--------------15-17---------------------3g15--13-|---------------------------8g17-------13-|
--------13-15------------------------------------|-----------------------------------15----|
--------------------13-15-------13---------------|-----------------------------------------|
--13-13-------------------16-16----16------------|--13-13-13-11-----13---------------------|


   S  E   S  E   S  S  S  E   S  S  S  S  S     S  E   S  E   S  S  S  E   S  S  S  S  S  
-----------------------------------17----18-|--------------------------------15-17-------|
--------------------------------------------|--------------------------------------15-17-|
--16-16--16-16--16-16-16-16--16-15----16----|--15-15--15-15--15-15-15-15--15-------------|
--------------------------------------------|--------------------------------------------|


   S  E   S  S  S  E   S  S  E   S  S  S  S     S  E   S  E   S  S  S  E   S  S  S  S  S  
--------------------------------14-16-14-16-|--------------------------------14-15-------|
--------------------------------------------|--------------------------------------13-15-|
--14-14--14-14-14-14--14-14-14--------------|--13-13--13-13--13-13-13-13--13-------------|
--------------------------------------------|--------------------------------------------|


   S  E   S  S  S  S  S  S  S  E   S  S  S  S     S  S  S  S  S  S  S  S  S  S  S  S  S  S  S  S  
---------------17----18--------------18----18-|--------------------------------------15-17-------|
----------------------------------------------|--------------------------------------------15-17-|
--16-16--16-15----16----16-16-16--16----16----|--15-15-15-15-15-15-13-15-15-15-15-15-------------|
----------------------------------------------|--------------------------------------------------|


                                                                                              |---3--|  
   S  S  S  S  S  S  S  S  S  S  S  S  S  S  S  S     S  S  S  S  S  S  S  S  S  S  S  S  E   S   S  S  
--------------------14-15-------------13-15-13-15-|--------------------10-12---------------------------|
--------------------------------------------------|--------------------------10-10-10-10-10------------|
--13-13-13-13-13-13-------13-13-13-13-------------|--10-10-10-10-10-10-----------------------17s-10s-8-|
--------------------------------------------------|----------------------------------------------------|


   E  S  E  S  E  S S  S  S  S  S  S  S     S  S S  S S S  S S S S  S  S  S  E   S  
----------------------------------------|--------------------------------13--------|
----------------------13-15-------13-15-|--------------------------13-15----17--17-|
----------------------------13-15-------|------------------------------------------|
--13----13----13------------------------|--13-13---16-----13-----------------------|


   S  S  S  S  S  S  S  S  S  S  S  S S    E   S     S  S  S  S S S  S S S S    Q     S  S  
--------------15-17---------------------3g15--13-|---------------------------8g17-------13-|
--------13-15------------------------------------|-----------------------------------15----|
--------------------13-15-------13---------------|-----------------------------------------|
--13-13-------------------16-16----16------------|--13-13-13-11-----13---------------------|


   E  S  E  S  E  S S  S  S  S  S  S  S     S  S S  S S S  S S S S  S  S  S  E   S  
----------------------------------------|--------------------------------13--------|
----------------------13-15-------13-15-|--------------------------13-15----17--17-|
----------------------------13-15-------|------------------------------------------|
--13----13----13------------------------|--13-13---16-----13-----------------------|


   S  S  S  S  S  S  S  S  S  S  S  S S    E   S     S  S  S  S S S  S S S S    Q     S  S  
--------------15-17---------------------3g15--13-|---------------------------8g17-------13-|
--------13-15------------------------------------|-----------------------------------15----|
--------------------13-15-------13---------------|-----------------------------------------|
--13-13-------------------16-16----16------------|--13-13-13-11-----13---------------------|


   E  S  E  S  E  S S  S  S  S  S  S  S     S  S S  S S S  S S S S  S  S  S  E   S  
----------------------------------------|--------------------------------13--------|
----------------------13-15-------13-15-|--------------------------13-15----17--17-|
----------------------------13-15-------|------------------------------------------|
--13----13----13------------------------|--13-13---16-----13-----------------------|


   S  S  S  S  S  S  S  S  S  S  S  S S    E   S     S  S  S  S S S  S S S S    Q     S  S  
--------------15-17---------------------3g15--13-|---------------------------8g17-------13-|
--------13-15------------------------------------|-----------------------------------15----|
--------------------13-15-------13---------------|-----------------------------------------|
--13-13-------------------16-16----16------------|--13-13-13-11-----13---------------------|


   E  S  E  S  E  S S  S  S  S  S  S  S     S  S S  S S S  S S S S  S  S  S  E   S  
----------------------------------------|--------------------------------13--------|
----------------------13-15-------13-15-|--------------------------13-15----17--17-|
----------------------------13-15-------|------------------------------------------|
--13----13----13------------------------|--13-13---16-----13-----------------------|


   S  S  S  S  S  S  S  S  S  S  S  S S    E   S     S  S  S  S S S  S S S S    Q     S  S  3x
--------------15-17---------------------3g15--13-|---------------------------8g17-------13--||
--------13-15------------------------------------|-----------------------------------15----*||
--------------------13-15-------13---------------|-----------------------------------------*||
--13-13-------------------16-16----16------------|--13-13-13-11-----13----------------------||




Duration Legend
---------------
W - whole
H - half
Q - quarter
E - 8th
S - 16th
T - 32nd
. - note dotted


Tablature Legend
----------------
L - tied note
g - grace note
s - legato slide
~ - vibrato
Login or Register to remove this ad.