Cold & Silent (Mega Man Battle Network) Bass/Guitar Tab

Submitted: Jun 14, 2012 by Jacob31593

5
Average: 5 (2 votes)
Download | Listen
Game: Mega Man Battle Network
Composer(s): Akari Kaida
Style: 2 or more instruments, Alternate picking, Arrangement, Transcription
Series: Mega Man

This song is also called Iceman's Stage

AutoScroll: Slow | Medium | Fast

Cold & Silent from Mega Man Battle Network
Composed by Akari Kaida
Tabbed by Jacob31593
June 14th 2012

This song is pretty great, I dont think it really fits iceman though
iceman blows

135 BPM

Lead

                                                                       Q.       H         E     H        Q     E   E   
E||--------|-------|-------|-------|-------|-------|-------|-------|-------------------------|------------------------|
B||--------|-------|-------|-------|-------|-------|-------|-------|-----------20~--------L--|--L--------L----19--20--|
G||*-------|-------|-------|-------|-------|-------|-------|-------|--17~--------------------|------------------------|
D||*-------|-------|-------|-------|-------|-------|-------|-------|-------------------------|------------------------|
A||--------|-------|-------|-------|-------|-------|-------|-------|-------------------------|------------------------|
E||--------|-------|-------|-------|-------|-------|-------|-------|-------------------------|------------------------|


   W                    H         H             W                     H         Q     E   E      W                  
--17~----------------|--L-------------------|---------------------|--------------------------|---------------------|
---------------------|-----------19~--------|--20~----------------|--------------------------|---------------------|
---------------------|----------------------|---------------------|--20~--------L----19--20--|--19~----------------|
---------------------|----------------------|---------------------|--------------------------|---------------------|
---------------------|----------------------|---------------------|--------------------------|---------------------|
---------------------|----------------------|---------------------|--------------------------|---------------------|


  W                    Q.       H         E     H        Q     E   E      W                     H          H          
-------------------|-------------------------|------------------------|--17~----------------|--22~-------------------|
-------------------|-----------20~--------L--|--L--------L----19--20--|---------------------|-------------19~--------|
--L----------------|--17~--------------------|------------------------|---------------------|------------------------|
-------------------|-------------------------|------------------------|---------------------|------------------------|
-------------------|-------------------------|------------------------|---------------------|------------------------|
-------------------|-------------------------|------------------------|---------------------|------------------------|


   W                     H          H             W                    H        Q     S  S  S  S  
---------------------|------------------------|---------------------|----------------------------|
--20~----------------|-------------20~--------|--19~----------------|--L--------L----------16-18-|
---------------------|--20~-------------------|---------------------|----------------17-19-------|
---------------------|------------------------|---------------------|----------------------------|
---------------------|------------------------|---------------------|----------------------------|
---------------------|------------------------|---------------------|----------------------------|


   S S S  S S S  S S  S S S S  S S S S     S S S  S S S  S S  S S S S  S S S S     S S S  S S S  S S  S S S S  S S S S  
---------------------18-------18-------|---------------------------------------|---------------------------------------|
--15-----15-----15---------------------|---------------------16-------16-------|---------------------16-------18-------|
---------------------------------------|--15-----15-----15---------------------|--17-----17-----17---------------------|
---------------------------------------|---------------------------------------|---------------------------------------|
---------------------------------------|---------------------------------------|---------------------------------------|
---------------------------------------|---------------------------------------|---------------------------------------|


   S S S S S S S S  E   E   E   E   3x
-------------------16--15-----------||
--15-----------------------18--15---||
-----------------------------------*||
-----------------------------------*||
------------------------------------||
------------------------------------||

Harmony

E||--------|-------|-------|-------|-------|-------|-------|-------|-------|-------|-------|-------|-------|-------|-------|
B||--------|-------|-------|-------|-------|-------|-------|-------|-------|-------|-------|-------|-------|-------|-------|
G||*-------|-------|-------|-------|-------|-------|-------|-------|-------|-------|-------|-------|-------|-------|-------|
D||*-------|-------|-------|-------|-------|-------|-------|-------|-------|-------|-------|-------|-------|-------|-------|
A||--------|-------|-------|-------|-------|-------|-------|-------|-------|-------|-------|-------|-------|-------|-------|
E||--------|-------|-------|-------|-------|-------|-------|-------|-------|-------|-------|-------|-------|-------|-------|


                                                                  H        Q     S  S  S  S  
-------|-------|-------|-------|-------|-------|-------|-------|----------------------------|
-------|-------|-------|-------|-------|-------|-------|-------|----------------------------|
-------|-------|-------|-------|-------|-------|-------|-------|-------------------------17-|
-------|-------|-------|-------|-------|-------|-------|-------|----------------17-19-20----|
-------|-------|-------|-------|-------|-------|-------|-------|----------------------------|
-------|-------|-------|-------|-------|-------|-------|-------|----------------------------|


   S S S  S S S  S S  S S S S  S S S S     S S S  S S S  S S  S S S S  S S S S     S S S  S S S  S S  S S S S  S S S S  
---------------------------------------|---------------------------------------|---------------------------------------|
---------------------------------------|--20-----20-----20---------------------|---------------------------------------|
---------------------18-------18-------|---------------------16-------16-------|--17-----17-----17---17-------17-------|
--18-----18-----18---------------------|---------------------------------------|---------------------------------------|
---------------------------------------|---------------------------------------|---------------------------------------|
---------------------------------------|---------------------------------------|---------------------------------------|


   S S S S S S S S  E   E   E   E   3x
------------------------------------||
-------------------18--16-----------||
--19-----------------------19--16--*||
-----------------------------------*||
------------------------------------||
------------------------------------||


Bwoot

       W                    Q.      Q.      Q        W                    Q.      Q.      Q        W                 
E||---15----------------|--15--------------15----|--14----------------|--14--------------14----|--15----------------|
B||---------------------|----------13------------|--------------------|----------15------------|--------------------|
G||*--------------------|------------------------|--------------------|------------------------|--------------------|
D||*--------------------|------------------------|--------------------|------------------------|--------------------|
A||---------------------|------------------------|--------------------|------------------------|--------------------|
E||---------------------|------------------------|--------------------|------------------------|--------------------|


   Q.      Q.      Q        W                    Q.      Q.      Q        W                    Q.      Q.      Q     
--15--------------15----|--17----------------|--17------14------14----|--15----------------|--15--------------15----|
----------13------------|--------------------|------------------------|--------------------|----------13------------|
------------------------|--------------------|------------------------|--------------------|------------------------|
------------------------|--------------------|------------------------|--------------------|------------------------|
------------------------|--------------------|------------------------|--------------------|------------------------|
------------------------|--------------------|------------------------|--------------------|------------------------|


   W                    Q.      Q.      Q        W                    Q.      Q.      Q        W                 
--14----------------|--14--------------14----|--15----------------|--15--------------15----|--17----------------|
--------------------|----------15------------|--------------------|----------13------------|--------------------|
--------------------|------------------------|--------------------|------------------------|--------------------|
--------------------|------------------------|--------------------|------------------------|--------------------|
--------------------|------------------------|--------------------|------------------------|--------------------|
--------------------|------------------------|--------------------|------------------------|--------------------|


   Q.      Q.      Q        W                    Q.      Q.      Q        W                    Q.      Q.      Q     
--17------14------14----|--15----------------|--15--------------15----|--14----------------|--14--------------14----|
------------------------|--------------------|----------13------------|--------------------|----------15------------|
------------------------|--------------------|------------------------|--------------------|------------------------|
------------------------|--------------------|------------------------|--------------------|------------------------|
------------------------|--------------------|------------------------|--------------------|------------------------|
------------------------|--------------------|------------------------|--------------------|------------------------|


   W                    Q.      Q.      Q        W                    Q     Q     Q     Q        E.   E.   E   Q     Q     
--15----------------|--15--------------15----|--17----------------|--------------------13----|--15---13---15--20----18----|
--------------------|----------13------------|--------------------|--13----15----16----------|----------------------------|
--------------------|------------------------|--------------------|--------------------------|----------------------------|
--------------------|------------------------|--------------------|--------------------------|----------------------------|
--------------------|------------------------|--------------------|--------------------------|----------------------------|
--------------------|------------------------|--------------------|--------------------------|----------------------------|


   E.   E.   E   Q     Q        H         Q     Q        W                 3x
----------------18----16----|--15--------------------|---------------------||
--16---15---16--------------|------------13----15----|--12-----------------||
----------------------------|------------------------|--------------------*||
----------------------------|------------------------|--------------------*||
----------------------------|------------------------|---------------------||
----------------------------|------------------------|---------------------||

Stringy

       E   E   E   E  E  E  E  E     E  E   E  E  E   E  E  E      E   E   E   E  E  E  E  E     E  E   E  E  E   E  E  E   
E||-------------------------------|----------------------------|------------------------------|----------------------------|
B||-------------------------------|----------------------------|------------------------------|----------------------------|
G||*--12--12--12--12--------------|--------12--------12--------|--12--12--12--12--------------|--------12--------12--------|
D||*--10--10--10--10--------------|--------10--------10--------|--10--10--10--10--------------|--------10--------10--------|
A||---10--10--10--10--------------|--------10--------10--------|--10--10--10--10--------------|--------10--------10--------|
E||----8---8---8---8--------------|---------8---------8--------|---8---8---8---8--------------|---------8---------8--------|


   E   E   E   E  E  E  E  E     E  E   E  E  E   E  E  E      E   E   E   E  E  E  E  E     E  E   E  E  E   E  E  E   
------------------------------|----------------------------|------------------------------|----------------------------|
------------------------------|----------------------------|------------------------------|----------------------------|
--12--12--12--12--------------|--------12--------12--------|--12--12--12--12--------------|--------12--------12--------|
--10--10--10--10--------------|--------10--------10--------|--10--10--10--10--------------|--------10--------10--------|
--10--10--10--10--------------|--------10--------10--------|--10--10--10--10--------------|--------10--------10--------|
---8---8---8---8--------------|---------8---------8--------|---8---8---8---8--------------|---------8---------8--------|


   E   E   E   E  E  E  E  E     E  E   E  E  E   E  E  E      E   E   E   E  E  E  E  E     E  E   E  E  E   E  E  E   
------------------------------|----------------------------|------------------------------|----------------------------|
------------------------------|----------------------------|------------------------------|----------------------------|
--12--12--12--12--------------|--------12--------12--------|--12--12--12--12--------------|--------12--------12--------|
--10--10--10--10--------------|--------10--------10--------|--10--10--10--10--------------|--------10--------10--------|
--10--10--10--10--------------|--------10--------10--------|--10--10--10--10--------------|--------10--------10--------|
---8---8---8---8--------------|---------8---------8--------|---8---8---8---8--------------|---------8---------8--------|


   E   E   E   E  E  E  E  E     E  E   E  E  E   E  E  E      E   E   E   E  E  E  E  E     E  E   E  E  E   E  E  E   
------------------------------|----------------------------|------------------------------|----------------------------|
------------------------------|----------------------------|------------------------------|----------------------------|
--12--12--12--12--------------|--------12--------12--------|--12--12--12--12--------------|--------12--------12--------|
--10--10--10--10--------------|--------10--------10--------|--10--10--10--10--------------|--------10--------10--------|
--10--10--10--10--------------|--------10--------10--------|--10--10--10--10--------------|--------10--------10--------|
---8---8---8---8--------------|---------8---------8--------|---8---8---8---8--------------|---------8---------8--------|


   E   E   E   E  E  E  E  E     E  E   E  E  E   E  E  E      E   E   E   E  E  E  E  E     E  E   E  E  E   E  E  E   
------------------------------|----------------------------|------------------------------|----------------------------|
------------------------------|----------------------------|------------------------------|----------------------------|
--12--12--12--12--------------|--------12--------12--------|--12--12--12--12--------------|--------12--------12--------|
--10--10--10--10--------------|--------10--------10--------|--10--10--10--10--------------|--------10--------10--------|
--10--10--10--10--------------|--------10--------10--------|--10--10--10--10--------------|--------10--------10--------|
---8---8---8---8--------------|---------8---------8--------|---8---8---8---8--------------|---------8---------8--------|


   E   E   E   E  E  E  E  E     E  E   E  E  E   E  E  E      E   E   E   E  E  E  E  E     E  E   E  E  E   E  E  E   
------------------------------|----------------------------|------------------------------|----------------------------|
------------------------------|----------------------------|------------------------------|----------------------------|
--12--12--12--12--------------|--------12--------12--------|--12--12--12--12--------------|--------12--------12--------|
--10--10--10--10--------------|--------10--------10--------|--10--10--10--10--------------|--------10--------10--------|
--10--10--10--10--------------|--------10--------10--------|--10--10--10--10--------------|--------10--------10--------|
---8---8---8---8--------------|---------8---------8--------|---8---8---8---8--------------|---------8---------8--------|


   H          H             H          H             H          Q      Q         H          E   E   E   E   3x
--20~--------18~--------|------------------------|---------------------------|------------------------------||
------------------------|--20~--------16~--------|-------------18~----18~----|--20~--------18--16-----------||
------------------------|------------------------|--19~----------------------|---------------------19--16--*||
------------------------|------------------------|---------------------------|-----------------------------*||
------------------------|------------------------|---------------------------|------------------------------||
------------------------|------------------------|---------------------------|------------------------------||

Bass

                                                                                                                   W       
       E   E  E   E  E  E  E  E      E   E  E   E  E  E   E  E      E   E  E   E  E  E  E  E      E   E  E   E  E  Q.      
G||------------------------------|------------------------------|-----------------------------|--------------------8------|
D||*--10------8--10-----------8--|--10------8--10--------10-----|--10------8--10-----------8--|--10------8--10------------|
A||*------10---------------------|------10----------------------|------10---------------------|------10-------------------|
E||------------------------------|------------------------------|-----------------------------|---------------------------|


                                                                                                               W       
   E   E  E   E  E  E  E  E      E   E  E   E  E  E   E  E      E   E  E   E  E  E  E  E      E   E  E   E  E  Q.      
-----------------------------|------------------------------|-----------------------------|--------------------8------|
--10------8--10-----------8--|--10------8--10--------10-----|--10------8--10-----------8--|--10------8--10------------|
------10---------------------|------10----------------------|------10---------------------|------10-------------------|
-----------------------------|------------------------------|-----------------------------|---------------------------|


                                                                                                               W       
   E   E  E   E  E  E  E  E      E   E  E   E  E  E   E  E      E   E  E   E  E  E  E  E      E   E  E   E  E  Q.      
-----------------------------|------------------------------|-----------------------------|--------------------8------|
--10------8--10-----------8--|--10------8--10--------10-----|--10------8--10-----------8--|--10------8--10------------|
------10---------------------|------10----------------------|------10---------------------|------10-------------------|
-----------------------------|------------------------------|-----------------------------|---------------------------|


                                                                                                               W       
   E   E  E   E  E  E  E  E      E   E  E   E  E  E   E  E      E   E  E   E  E  E  E  E      E   E  E   E  E  Q.      
-----------------------------|------------------------------|-----------------------------|--------------------8------|
--10------8--10-----------8--|--10------8--10--------10-----|--10------8--10-----------8--|--10------8--10------------|
------10---------------------|------10----------------------|------10---------------------|------10-------------------|
-----------------------------|------------------------------|-----------------------------|---------------------------|


                                                                                                               W       
   E   E  E   E  E  E  E  E      E   E  E   E  E  E   E  E      E   E  E   E  E  E  E  E      E   E  E   E  E  Q.      
-----------------------------|------------------------------|-----------------------------|--------------------8------|
--10------8--10-----------8--|--10------8--10--------10-----|--10------8--10-----------8--|--10------8--10------------|
------10---------------------|------10----------------------|------10---------------------|------10-------------------|
-----------------------------|------------------------------|-----------------------------|---------------------------|


   E   E  E   E  E  E  E  E      E   E  E   E  E  E   E  E      E   E  E   E  E  E  E  E      E   E  E   E  E  E  E   E   
-----------------------------|------------------------------|-----------------------------|------------------------------|
--10------8--10-----------8--|--10------8--10--------10-----|--10------8--10-----------8--|--10------8--10-----------10--|
------10---------------------|------10----------------------|------10---------------------|------10----------------------|
-----------------------------|------------------------------|-----------------------------|------------------------------|


  S S S S S S S S S S S S S S  S S     S S S  S S S  S S S S S  S S S S S     S S S  S S S  S S  S S S  S S S  S S  
------------------8-----8----------|--------------------------------------|----------------------------------------|
--8-----8-----8--------------------|---------------------------11---------|----------------------------------------|
------------------------------10---|--11-----11-----11--------------------|----------------------------------------|
-----------------------------------|---------------------9------------9---|--10-----10-----10---10-----11-----13---|


   S S S S S S S S S S S S S S S S  3x
------------------------------------||
-----------------------------------*||
--10-------------------------------*||
------------------------------------||


Duration Legend
---------------
W - whole
H - half
Q - quarter
E - 8th
S - 16th
. - note dotted
|-n-|  - n-tuplets


Tablature Legend
----------------
L - tied note
x - dead note
~ - vibrato
Login or Register to remove this ad.