Boss Theme (Mega Man Battle Network) Bass/Guitar Tab

Submitted: Nov 08, 2009 by Jacob31593 (Last updated: Apr 05, 2010)

5
Average: 5 (2 votes)
Download | Listen
Game: Mega Man Battle Network
Composer(s): Akari Kaida
Style: 2 or more instruments, Alternate picking, Arrangement, Transcription
Series: Mega Man

AutoScroll: Slow | Medium | Fast

Boss Theme from Mega Man Battle Network
Composed by Akari Kaida
Tabbed by Jacob31593
Nov. 8th 2009

I made this a long time ago and forgot all about it, I did a terrible job on the drums :p.
The bass is included in the guitar pro file.

144 BPM

Lead

                                      E  E   E   H        E     H         H         
E||-------|-------|-------|-------|-------------12--------L--|--L--------10--------|
B||-------|-------|-------|-------|------9--10---------------|---------------------|
G||-------|-------|-------|-------|--11----------------------|---------------------|
D||-------|-------|-------|-------|--------------------------|---------------------|
A||-------|-------|-------|-------|--------------------------|---------------------|
E||-------|-------|-------|-------|--------------------------|---------------------|


  W                   W                    E  E   E   H        E     H         Q.      S  S  
--9----------------|--L----------------|-------------12--------L--|--L--------10------12-10-|
-------------------|-------------------|------9--10---------------|-------------------------|
-------------------|-------------------|--11----------------------|-------------------------|
-------------------|-------------------|--------------------------|-------------------------|
-------------------|-------------------|--------------------------|-------------------------|
-------------------|-------------------|--------------------------|-------------------------|


  W                   W                    E   E   E   H        E     Q     Q     Q.      S  S  
--9----------------|--L----------------|--------------14--------L--|-------12----17------16-15-|
-------------------|-------------------|------14--15---------------|---------------------------|
-------------------|-------------------|--16-----------------------|---------------------------|
-------------------|-------------------|---------------------------|---------------------------|
-------------------|-------------------|---------------------------|---------------------------|
-------------------|-------------------|---------------------------|---------------------------|


   W                   H.            Q        E   Q     S  S  H           W                 
--14----------------|--L------------14----|--13--14----13--------------|-------------------|
--------------------|---------------------|---------------14-----------|-------------------|
--------------------|---------------------|------------------15--------|--L----------------|
--------------------|---------------------|----------------------------|-------------------|
--------------------|---------------------|----------------------------|-------------------|
--------------------|---------------------|----------------------------|-------------------|


  W                                        E.   E.   E   E.   E.   E   
-------------------|-------------------|--14--------------------------|
-------------------|-------------------|-------15-----------------15--|
--L----------------|-------------------|------------16-------16-------|
-------------------|-------------------|----------------17------------|
-------------------|-------------------|------------------------------|
-------------------|-------------------|------------------------------|


   E.   E.   E   E.   E.   E      E.   E.   E   E.   E.   E      E.   E.   E   E.   E.   E   
--14---12---12--17---15---15--|--13--------------------------|--13---11---11--16---14---14--|
------------------------------|-------14-----------------14--|------------------------------|
------------------------------|------------15-------15-------|------------------------------|
------------------------------|----------------16------------|------------------------------|
------------------------------|------------------------------|------------------------------|
------------------------------|------------------------------|------------------------------|


   E.   E.   E   E.   E.   E      E.   E.   E   E.   E.   E      H        Q    E   S  S  
--14--------------------------|--14---12---12--17---15---15--|--14--------L-------------|
-------15-----------------15--|------------------------------|--------------------17-15-|
------------16-------16-------|------------------------------|--------------------------|
----------------17------------|------------------------------|--------------------------|
------------------------------|------------------------------|--------------------------|
------------------------------|------------------------------|--------------------------|


   W                   E  E   E   H        E     H         H           W                 
--------------------|------------12--------L--|--L--------10--------|--9----------------|
--13----------------|--7--9--10---------------|---------------------|-------------------|
--------------------|-------------------------|---------------------|-------------------|
--------------------|-------------------------|---------------------|-------------------|
--------------------|-------------------------|---------------------|-------------------|
--------------------|-------------------------|---------------------|-------------------|


  W                   E  E  E   H        E     H         Q.      S  S    W                 
--L----------------|--2--4--5--12--------L--|--L--------10------12-10-|--9----------------|
-------------------|------------------------|-------------------------|-------------------|
-------------------|------------------------|-------------------------|-------------------|
-------------------|------------------------|-------------------------|-------------------|
-------------------|------------------------|-------------------------|-------------------|
-------------------|------------------------|-------------------------|-------------------|


  W                   E  E   E   H        E     Q     Q     Q.      S  S     W                 
--L----------------|--7--9--10--14--------L--|-------12----17------16-15-|--14----------------|
-------------------|-------------------------|---------------------------|--------------------|
-------------------|-------------------------|---------------------------|--------------------|
-------------------|-------------------------|---------------------------|--------------------|
-------------------|-------------------------|---------------------------|--------------------|
-------------------|-------------------------|---------------------------|--------------------|


  H.            Q        E   Q     S  S  H           W                   W                 
--L------------14----|--13--14----13--------------|-------------------|-------------------|
---------------------|---------------14-----------|-------------------|-------------------|
---------------------|------------------15--------|--L----------------|--L----------------|
---------------------|----------------------------|-------------------|-------------------|
---------------------|----------------------------|-------------------|-------------------|
---------------------|----------------------------|-------------------|-------------------|


                       E.   E.   E   E.   E.   E      E.   E.   E   E.   E.   E   
-------------------|--14--------------------------|--14---12---12--17---15---15--|
-------------------|-------15-----------------15--|------------------------------|
-------------------|------------16-------16-------|------------------------------|
-------------------|----------------17------------|------------------------------|
-------------------|------------------------------|------------------------------|
-------------------|------------------------------|------------------------------|


   E.   E.   E   E.   E.   E      E.   E.   E   E.   E.   E      E.   E.   E   E.   E.   E   
--13--------------------------|--13---11---11--16---14---14--|--14--------------------------|
-------14-----------------14--|------------------------------|-------15-----------------15--|
------------15-------15-------|------------------------------|------------16-------16-------|
----------------16------------|------------------------------|----------------17------------|
------------------------------|------------------------------|------------------------------|
------------------------------|------------------------------|------------------------------|


   E.   E.   E   E.   E.   E      H        Q    E   S  S    W                                     
--14---12---12--17---15---15--|--14--------L-------12-10-|--8----------------|
------------------------------|--------------------------|-------------------|
------------------------------|--------------------------|-------------------|
------------------------------|--------------------------|-------------------|
------------------------------|--------------------------|-------------------|
------------------------------|--------------------------|-------------------|

Rhythm

     E  E  E  E  E.  E.  E     E  E  E  E  E.   E.  E     E  E  E  E  E.  E.  E   
D||-------------------------|--------------------------|-------------------------|
A||-------------------------|--------------------------|-------------------------|
F||-------------------------|--------------------------|-------------------------|
C||-------------------------|--------------------------|-------------------------|
G||--6--6--6--6--9---8---7--|--6--6--6--6--9---11---7--|--6--6--6--6--9---8---7--|
C||--6--6--6--6--9---8---7--|--6--6--6--6--9---11---7--|--6--6--6--6--9---8---7--|


  E  E  E  E  E.   E.  E     E  E  E  E  E.  E.  E     E  E  E  E  E.   E.  E   
--------------------------|-------------------------|--------------------------|
--------------------------|-------------------------|--------------------------|
--------------------------|-------------------------|--------------------------|
--------------------------|-------------------------|--------------------------|
--6--6--6--6--9---11---7--|--6--6--6--6--9---8---7--|--6--6--6--6--9---11---7--|
--6--6--6--6--9---11---7--|--6--6--6--6--9---8---7--|--6--6--6--6--9---11---7--|


  E  E  E  E  E.  E.  E     E  E  E  E  E.   E.  E     E  E  E  E  E.  E.  E   
-------------------------|--------------------------|-------------------------|
-------------------------|--------------------------|-------------------------|
-------------------------|--------------------------|-------------------------|
-------------------------|--------------------------|-------------------------|
--6--6--6--6--9---8---7--|--6--6--6--6--9---11---7--|--6--6--6--6--9---8---7--|
--6--6--6--6--9---8---7--|--6--6--6--6--9---11---7--|--6--6--6--6--9---8---7--|


  E  E  E  E  E.   E.  E     E  E  E  E  E.  E.  E     E  E  E  E  E.   E.  E   
--------------------------|-------------------------|--------------------------|
--------------------------|-------------------------|--------------------------|
--------------------------|-------------------------|--------------------------|
--------------------------|-------------------------|--------------------------|
--6--6--6--6--9---11---7--|--6--6--6--6--9---8---7--|--6--6--6--6--9---11---7--|
--6--6--6--6--9---11---7--|--6--6--6--6--9---8---7--|--6--6--6--6--9---11---7--|


  E  E  E  E  E.  E.  E     E  E  E  E  E.  E.  E     E  E  E  E  E.  E.  E   
-------------------------|-------------------------|-------------------------|
-------------------------|-------------------------|-------------------------|
-------------------------|-------------------------|-------------------------|
-------------------------|-------------------------|-------------------------|
--4--4--4--4--7---6---5--|--4--4--4--4--7---9---5--|--4--4--4--4--7---6---5--|
--4--4--4--4--7---6---5--|--4--4--4--4--7---9---5--|--4--4--4--4--7---6---5--|


  E  E  E  E  E.  E.  E     E  E  E  E  E.  E.  E     E  E  E  E  E.  E.  E   
-------------------------|-------------------------|-------------------------|
-------------------------|-------------------------|-------------------------|
-------------------------|-------------------------|-------------------------|
-------------------------|-------------------------|-------------------------|
--4--4--4--4--7---9---5--|--4--4--4--4--7---6---5--|--4--4--4--4--7---9---5--|
--4--4--4--4--7---9---5--|--4--4--4--4--7---6---5--|--4--4--4--4--7---9---5--|


  E  E  E  E  E.  E.  E     E  E  E  E  E.  E.  E     E  E  E  E  E.  E.  E   
-------------------------|-------------------------|-------------------------|
-------------------------|-------------------------|-------------------------|
-------------------------|-------------------------|-------------------------|
-------------------------|-------------------------|-------------------------|
--4--4--4--4--7---6---5--|--4--4--4--4--7---9---5--|--4--4--4--4--7---6---5--|
--4--4--4--4--7---6---5--|--4--4--4--4--7---9---5--|--4--4--4--4--7---6---5--|


  E  E  E  E  E.   E.   E     E  E  E  E  E.  E.  E     E  E  E  E  E.   E.   E   
---------------------------|-------------------------|---------------------------|
---------------------------|-------------------------|---------------------------|
---------------------------|-------------------------|---------------------------|
---------------------------|-------------------------|---------------------------|
--4--4--4--4--4---10---11--|--4--4--4--4--7---6---5--|--4--4--4--4--4---10---11--|
--4--4--4--4--4---10---11--|--4--4--4--4--7---6---5--|--4--4--4--4--4---10---11--|


  E  E  E  E  E.  E.  E     E  E  E  E  E.   E.   E     E  E  E  E  E.  E.  E   
-------------------------|---------------------------|-------------------------|
-------------------------|---------------------------|-------------------------|
-------------------------|---------------------------|-------------------------|
-------------------------|---------------------------|-------------------------|
--4--4--4--4--7---6---5--|--4--4--4--4--4---10---11--|--4--4--4--4--9---7---4--|
--4--4--4--4--7---6---5--|--4--4--4--4--4---10---11--|--4--4--4--4--9---7---4--|


  H.           Q        E  E  E  E  E.  E.  E     E  E  E  E  E.   E.  E   
---------------------|-------------------------|--------------------------|
---------------------|-------------------------|--------------------------|
---------------------|-------------------------|--------------------------|
---------------------|-------------------------|--------------------------|
--2------------L/----|--6--6--6--6--9---8---7--|--6--6--6--6--9---11---7--|
--2------------L/----|--6--6--6--6--9---8---7--|--6--6--6--6--9---11---7--|


  E  E  E  E  E.  E.  E     E  E  E  E  E.   E.  E     E  E  E  E  E.  E.  E   
-------------------------|--------------------------|-------------------------|
-------------------------|--------------------------|-------------------------|
-------------------------|--------------------------|-------------------------|
-------------------------|--------------------------|-------------------------|
--6--6--6--6--9---8---7--|--6--6--6--6--9---11---7--|--6--6--6--6--9---8---7--|
--6--6--6--6--9---8---7--|--6--6--6--6--9---11---7--|--6--6--6--6--9---8---7--|


  E  E  E  E  E.   E.  E     E  E  E  E  E.  E.  E     E  E  E  E  E.   E.  E   
--------------------------|-------------------------|--------------------------|
--------------------------|-------------------------|--------------------------|
--------------------------|-------------------------|--------------------------|
--------------------------|-------------------------|--------------------------|
--6--6--6--6--9---11---7--|--6--6--6--6--9---8---7--|--6--6--6--6--9---11---7--|
--6--6--6--6--9---11---7--|--6--6--6--6--9---8---7--|--6--6--6--6--9---11---7--|


  E  E  E  E  E.  E.  E     E  E  E  E  E.  E.  E     E  E  E  E  E.  E.  E   
-------------------------|-------------------------|-------------------------|
-------------------------|-------------------------|-------------------------|
-------------------------|-------------------------|-------------------------|
-------------------------|-------------------------|-------------------------|
--4--4--4--4--7---6---5--|--4--4--4--4--7---9---5--|--4--4--4--4--7---6---5--|
--4--4--4--4--7---6---5--|--4--4--4--4--7---9---5--|--4--4--4--4--7---6---5--|


  E  E  E  E  E.  E.  E     E  E  E  E  E.  E.  E     E  E  E  E  E.  E.  E   
-------------------------|-------------------------|-------------------------|
-------------------------|-------------------------|-------------------------|
-------------------------|-------------------------|-------------------------|
-------------------------|-------------------------|-------------------------|
--4--4--4--4--7---9---5--|--4--4--4--4--7---6---5--|--4--4--4--4--7---9---5--|
--4--4--4--4--7---9---5--|--4--4--4--4--7---6---5--|--4--4--4--4--7---9---5--|


  E  E  E  E  E.  E.  E     E  E  E  E  E.  E.  E     E  E  E  E  E.  E.  E   
-------------------------|-------------------------|-------------------------|
-------------------------|-------------------------|-------------------------|
-------------------------|-------------------------|-------------------------|
-------------------------|-------------------------|-------------------------|
--4--4--4--4--7---6---5--|--4--4--4--4--7---9---5--|--4--4--4--4--7---6---5--|
--4--4--4--4--7---6---5--|--4--4--4--4--7---9---5--|--4--4--4--4--7---6---5--|


  E  E  E  E  E.   E.   E     E  E  E  E  E.  E.  E     E  E  E  E  E.   E.   E   
---------------------------|-------------------------|---------------------------|
---------------------------|-------------------------|---------------------------|
---------------------------|-------------------------|---------------------------|
---------------------------|-------------------------|---------------------------|
--4--4--4--4--4---10---11--|--4--4--4--4--7---6---5--|--4--4--4--4--4---10---11--|
--4--4--4--4--4---10---11--|--4--4--4--4--7---6---5--|--4--4--4--4--4---10---11--|


  E  E  E  E  E.  E.  E     E  E  E  E  E.   E.   E     E  E  E  E  E.  E.  E     W                 
-------------------------|---------------------------|-------------------------|-------------------|
-------------------------|---------------------------|-------------------------|-------------------|
-------------------------|---------------------------|-------------------------|-------------------|
-------------------------|---------------------------|-------------------------|-------------------|
--4--4--4--4--7---6---5--|--4--4--4--4--4---10---11--|--4--4--4--4--9---7---4--|--2----------------|
--4--4--4--4--7---6---5--|--4--4--4--4--4---10---11--|--4--4--4--4--9---7---4--|--2----------------|







Duration Legend
---------------
W - whole
H - half
Q - quarter
E - 8th
S - 16th
T - 32nd
X - 64th
. - note dotted
|-n-|  - n-tuplets


Tablature Legend
----------------
L - tied note






Login or Register to remove this ad.