Heel's Parade (Mega Man Battle Network 4) Bass/Guitar Tab

Submitted: Aug 14, 2010 by Jacob31593

5
Average: 5 (1 vote)
Download | Listen
Game: Mega Man Battle Network 4
Composer(s): Akari Kaida
Style: 2 or more instruments, Alternate picking, Sweep picking, Transcription
Series: Mega Man

This song is also called Undernet Theme

AutoScroll: Slow | Medium | Fast

Heel's Parade from Megaman Battlenetwork 4
Composed by Akari Kaida
Tabbed by Jacob31593
August 8th 2010

132 BPM

Guitar 1

      E   E   E   E   E   E   E   E      E   E   E   E  E   Q.          E   S  S  E   S  S  E   E   E   E   
E||----------------------------------|-----------------------------||------19-19-19--19-19-19--18--18--18--|
B||--18--18--18--18--18--18--18--18--|--18--18--18--18-----17------||--------------------------------------|
G||----------------------------------|-----------------------------||*-------------------------------------|
D||----------------------------------|-----------------------------||*-------------------------------------|
A||----------------------------------|-----------------------------||--------------------------------------|
E||----------------------------------|-----------------------------||--------------------------------------|


  E   S  S  E   S  S  E   E   E   E     E   S  S  E   S  S  E   E   E   E   
-----17-17-17--17-17-17--16--16--16--|-----19-19-19--19-19-19--18--18--18--|
-------------------------------------|-------------------------------------|
-------------------------------------|-------------------------------------|
-------------------------------------|-------------------------------------|
-------------------------------------|-------------------------------------|
-------------------------------------|-------------------------------------|


  E   S  S  E   S  S  E   E   E   E     S  S  S  S  S  S  S  S S  S  S  S  S  S  S  S  
-----17-17-17--17-17-17--16--16--16--|------------------------------------------------|
-------------------------------------|----16-------16-------16---16-------16-------16-|
-------------------------------------|-------14-------14------------14-------14-------|
-------------------------------------|----------16-------16------------16-------16----|
-------------------------------------|------------------------------------------------|
-------------------------------------|------------------------------------------------|


  S  S  S  S  S  S  S  S S  S  S  S  S  S  S  S    S  S  S  S  S  S  S  S S  S  S  S  S  S  S  S  
------------------------------------------------|------------------------------------------------|
----16-------16-------16---16-------16-------16-|----16-------16-------16---16-------16-------16-|
-------14-------14------------14-------14-------|-------14-------14------------14-------14-------|
----------16-------16------------16-------16----|----------16-------16------------16-------16----|
------------------------------------------------|------------------------------------------------|
------------------------------------------------|------------------------------------------------|


  S  S  S  S  S  S  S  S S  S  S  S  S  S  S  S    E   S  S  E   S  S  E   E   E   E   
------------------------------------------------|-----19-19-19--19-19-19--18--18--18--|
----16-------16-------16---16-------16-------16-|-------------------------------------|
-------14-------14------------14-------14-------|-------------------------------------|
----------16-------16------------16-------16----|-------------------------------------|
------------------------------------------------|-------------------------------------|
------------------------------------------------|-------------------------------------|


  E   S  S  E   S  S  E   E   E   E     E   S  S  E   S  S  E   E   E   E   
-----17-17-17--17-17-17--16--16--16--|-----19-19-19--19-19-19--18--18--18--|
-------------------------------------|-------------------------------------|
-------------------------------------|-------------------------------------|
-------------------------------------|-------------------------------------|
-------------------------------------|-------------------------------------|
-------------------------------------|-------------------------------------|


  E   S  S  E   S  S  E   E   E   E      E   E  E   S  S  E   E   E   E      E   E  E   S  S  Q     Q     
-----17-17-17--17-17-17--16--16--16--|--15--15-----15-13-13--13--13--13--|--15--15-----15-13-13----13----|
-------------------------------------|-----------------------------------|-------------------------------|
-------------------------------------|-----------------------------------|-------------------------------|
-------------------------------------|-----------------------------------|-------------------------------|
-------------------------------------|-----------------------------------|-------------------------------|
-------------------------------------|-----------------------------------|-------------------------------|


   E   E  E   S  S  E   E   E   E      E   E  E   S  S  Q     Q     5x
--15--15-----15-13-13--13--13--13--|--15--15-----15-13-13----13-----||
-----------------------------------|--------------------------------||
-----------------------------------|-------------------------------*||
-----------------------------------|-------------------------------*||
-----------------------------------|--------------------------------||
-----------------------------------|--------------------------------||




Duration Legend
---------------
W - whole
H - half
Q - quarter
E - 8th
S - 16th

Guitar 2

     E  E  E  E  E  E  E  E     E  E  E  E  E   Q.           H         H            H         H         
E||--------------------------|-------------------------||-----------------------|----------------------|
B||--------------------------|-------------------------||---18--------18--------|--17--------17--------|
G||--------------------------|-------------------------||*--16--------15--------|--14--------13--------|
D||--9--9--9--9--9--9--9--9--|--9--9--9--9-----10------||*----------------------|----------------------|
A||--------------------------|-------------------------||-----------------------|----------------------|
E||--------------------------|-------------------------||-----------------------|----------------------|


   H         H            H         H            W                    H         H         
----------------------|----------------------|--------------------|----------------------|
--18--------18--------|--17--------17--------|--------------------|----------------------|
--16--------15--------|--14--------13--------|--14----------------|--14--------14--------|
----------------------|----------------------|--------------------|----------------------|
----------------------|----------------------|--------------------|----------------------|
----------------------|----------------------|--------------------|----------------------|


   W                    H         H            H         H            H         H         
--------------------|----------------------|----------------------|----------------------|
--------------------|----------------------|--18--------18--------|--17--------17--------|
--14----------------|--14--------14--------|--16--------15--------|--14--------13--------|
--------------------|----------------------|----------------------|----------------------|
--------------------|----------------------|----------------------|----------------------|
--------------------|----------------------|----------------------|----------------------|


   H         H            H         H            H         H            H         H         
----------------------|----------------------|----------------------|----------------------|
--18--------18--------|--17--------17--------|--20--------18--------|--20--------18--------|
--16--------15--------|--14--------13--------|--17--------16--------|--17--------19--------|
----------------------|----------------------|----------------------|----------------------|
----------------------|----------------------|----------------------|----------------------|
----------------------|----------------------|----------------------|----------------------|


   H         H            H         H         5x
----------------------|-----------------------||
----------------------|------------18---------||
--17--------16--------|--17------------------*||
----------------------|----------------------*||
----------------------|-----------------------||
----------------------|-----------------------||




Duration Legend
---------------
W - whole
H - half
Q - quarter
E - 8th
S - 16th

Guitar 3

                                                       W                   H        H         
E||-------|-------||--------|-------|-------|-------|-------------------|--------------------|
B||-------|-------||--------|-------|-------|-------|-------------------|--------------------|
G||-------|-------||*-------|-------|-------|-------|-------------------|--------------------|
D||-------|-------||*-------|-------|-------|-------|-------------------|--------------------|
A||-------|-------||--------|-------|-------|-------|--6----------------|--5--------3--------|
E||-------|-------||--------|-------|-------|-------|--6----------------|--5--------3--------|


  W                   H        H                                 
-------------------|--------------------|-----------|-----------|
-------------------|--------------------|-----------|-----------|
-------------------|--------------------|-----------|-----------|
-------------------|--------------------|-----------|-----------|
--6----------------|--5--------3--------|-----------|-----------|
--6----------------|--5--------3--------|-----------|-----------|


   S  S  S  S  S  S  S  S  S  S  S  S  S  S  S  S     S  S  S  S  S  S  S  S  S  S  S  S  S  S  S  S       
--14-19-23-14-19-23-14-19-23-14-19-23-14-19-23-14-|--23-17-14-23-17-14-23-17-14-23-17-14-23-17-14-14-|----|
--------------------------------------------------|--------------------------------------------------|----|
--------------------------------------------------|--------------------------------------------------|----|
--------------------------------------------------|--------------------------------------------------|----|
--------------------------------------------------|--------------------------------------------------|----|
--------------------------------------------------|--------------------------------------------------|----|


       H        H           H        Q     Q     5x
----|--------------------|-----------------------||
----|--------------------|-----------------------||
----|--------------------|----------------------*||
----|--------------------|----------------------*||
----|--3--------5--------|--6--------8----10-----||
----|--3--------5--------|--6--------8----10-----||




Duration Legend
---------------
W - whole
H - half
Q - quarter
E - 8th
S - 16th

BASS!

     E  E  E  E  E  E  E  E     E  E  E  E  E  Q.          E  E  E  E  E  E  E  E   
G||--------------------------|------------------------||---------------------------|
D||--------------------------|------------------------||*--------------------------|
A||--------------------------|------------------------||------1--2--1-----1--2--1--|
E||--4--4--4--4--4--4--4--4--|--4--4--4--4-----4------||*--1-----------1-----------|
B||--------------------------|------------------------||---------------------------|


  E  E  E  E  E  E  E  E     E  E  E  E  E  E  E  E     E  E  E  E  E  E  E  E     H        H         
--------------------------|--------------------------|--------------------------|--------------------|
--------------------------|--------------------------|--------------------------|--------------------|
--------------------------|-----1--2--1-----1--2--1--|--------------------------|--------------------|
--0--4--5--4--0--4--5--4--|--1-----------1-----------|--0--4--5--4--0--4--5--4--|--------------------|
--------------------------|--------------------------|--------------------------|--4--------4--------|


  H        H           H        H           H        Q    Q       E  E  E  E  E  E  E  E   
--------------------|--------------------|---------------------|--------------------------|
--------------------|--------------------|---------------------|--------------------------|
--------------------|--------------------|---------------------|-----1--2--1-----1--2--1--|
--------------------|--------------------|-----------3----2----|--1-----------1-----------|
--4--------4--------|--4--------4--------|--4------------------|--------------------------|


  E  E  E  E  E  E  E  E     E  E  E  E  E  E  E  E     E  E  E  E  E  E  E  E     E  E  E  E  E  E  E  E   
--------------------------|--------------------------|--------------------------|--------------------------|
--------------------------|--------------------------|--------------------------|--------------------------|
--------------------------|-----1--2--1-----1--2--1--|--------------------------|--------------------------|
--0--4--5--4--0--4--5--4--|--1-----------1-----------|--0--4--5--4--0--4--5--4--|--------------------------|
--------------------------|--------------------------|--------------------------|--1--1--1--1--3--3--3--3--|


  E  E  E  E  Q    Q       E  E  E  E  E  E  E  E     E  E  E  E  Q    Q     5x
------------------------|--------------------------|-------------------------||
------------------------|--------------------------|------------------------*||
------------------------|--------------------------|-------------------------||
--------------1----3----|--------------------------|--------------1----3----*||
--4--4--4--4------------|--1--1--1--1--3--3--3--3--|--4--4--4--4-------------||




Duration Legend
---------------
W - whole
H - half
Q - quarter
E - 8th
S - 16th
Login or Register to remove this ad.