Ads

Splash Blue (Splashwoman Stage) (Mega Man 9) Guitar Tab

Submitted: Aug 23, 2010 by stealthy_roadkill

5
Average: 5 (2 votes)
Download | Listen
Game: Mega Man 9
Composer(s): Ippo Yamada, Yu Shimoda, Ryo Kawakami, Hiroki Isogai
Style: Alternate picking, Transcription
Series: Mega Man

AutoScroll: Slow | Medium | Fast
Splash Blue (splashwoman stage)
Megaman 9
Composed by Ippo Yamada, Yu Shimoda, Ryo Kawakami, Hiroki Isogai
Tabbed by stealthy_Roadkill
22nd August '10





EADGBe

|--------------------------------------------------------------------------------------------------------------|
|-------------9------9-11----13--11--9--8--------------9-----9-11----13--11--9-------------9h11h13-------------|
|---10~--8-10-----10------------------------8h10--8-10----10---------------------------------------13----------|
|-------------------------------------------------------------------------------10-13--------------------------|
|--------------------------------------------------------------------------------------------------------------|
|--------------------------------------------------------------------------------------------------------------|


|------11-13-------------------------------------------------11--13--11--12-------------------11-13------------|
|---13-------13--11--13p11h13---11-9-------------13------13---------------------9h11h13----13-------13---------|
|------------------------------------12-9----10------10---------------------------------13---------------------|
|--------------------------------------------------------------------------------------------------------------|
|--------------------------------------------------------------------------------------------------------------|
|--------------------------------------------------------------------------------------------------------------|


|----------------------------------------------11--13--11--12--15----------------------------------------------|
|---11--13p11h13--11-9--------------13------13--------------------------------9-----9-11--9-11--13--11--9--8---|
|----------------------12-9----10-------10---------------------------10~-8-10----10----------------------------|
|--------------------------------------------------------------------------------------------------------------|
|--------------------------------------------------------------------------------------------------------------|
|--------------------------------------------------------------------------------------------------------------|


|--------------------------------------11-13-------------------------------------------------------------------|
|------------9-----9-11--9-11-13-11-13-------------------------------------------------------------------------|
|---10--8-10----10---------------------------------------------------------------------------------------------|
|--------------------------------------------------------------------------------------------------------------|
|--------------------------------------------------------------------------------------------------------------|
|--------------------------------------------------------------------------------------------------------------|


Login or Register to remove this ad.

1 comment on Splash Blue (Splashwoman Stage)

Lol splashwoman. Do u guys

Lol splashwoman. Do u guys dig the women being a robot master?