Ads

Dr. Wily's Castle 2 (Mega Man 9) Guitar Tab

Submitted: Jan 30, 2017 by ltm_1988

0
Download | Listen
Game: Mega Man 9
Composer(s): Ippo Yamada, Yu Shimoda, Ryo Kawakami, Hiroki Isogai
Style: Arrangement, Fingerstyle
Series: Mega Man

AutoScroll: Slow | Medium | Fast
Dr. Wily's Castle 2
Mega Man 9
Ippo Yamada, Ryo Kawakami, Yu Shimoda, Hiroki Isogai
ltm_1988
1/27/2017

MIDI slowed from game speed

   Q       Q          E   S S E   S S E   S S S S S S   E   S S E   S S E   S S S S S S
E|-----------------||---------------------------------|---------------------------------|
B|-----------------||---------------------------2-0---|---------------------------0-----|
G|-----------------||*------------------------------2-|---------------------2-------2---|
D|---------2-------||*4~------------------4-----------|-4~----------2-----------------2-|
A|-4-------4-------||-------------4-------------------|---------------------------------|
E|-5---------------||-2---2-2-2---2-2-2---2-2-2---2-2-|-0---0-0-0---0-0-0---0-0-0---0-0-|

    E   S S E   S S E   S S E   S S   S S S S E   S S E   S S E   S S
E||---------------------------------|---------------------------------|
B||---------------------------------|---------------------------------|
G||---------------------------------|---------------------------------|
D||-4~----------0-0-0---0-0-0---2---|-------------------------2-------|
A||-5---5-5-5---4-------2-------5-5-|-4-2-4~----------4---------------|
E||---------------------------------|-0---0-0-0---0-0-0---0-0-0---0-0-|

    E   S S E   S S E   S S S S S S   E   S S E   S S E   S S S S S S
E||---------------------------------|---------------------------------|
B||---------------------------2-0---|---------------------------0---0-|
G||-------------------------------2-|---------------------2-------2---|
D||-4~------------------4-----------|-4~----------2-------------------|
A||-------------4-------------------|---------------------------------|
E||-2---2-2-2---2-2-2---2-2-2---2-2-|-0---0-0-0---0-0-0---0-0-0---0-0-|

                                                       |-3-|   |-3-|
    E   S S E   S S E   S S E   S S   S S S S E   S S  E E E   E E E
E||-2~--------------------------0---|--------------------0------------|
B||-------------2-------0-----------|-2-0-2~-----------0---2---0------|
G||---------------------------------|----------------------------2----|
D||-0---0-0-0---0-0-0---0-0-0---0-0-|----------------------------0-2--|
A||---------------------------------|----------------------2---4------|
E||---------------------------------|-0---0-0-0---0-0--2-0---------0--|

    E   S S E   S S S S S E   S S S   E   S S E   S E   S S E   S S S
E||---------------------------------|-2~------------------------------|
B||-----------------2~--------------|---------------------------------|
G||---------------------------------|---------------------------------|
D||-4~------------------4-----------|---------------------4-----------|
A||-----0---4-----0-------4---3-2-0-|-----0---4-----0-------4---3-2-0-|
E||-2-----2-----2-----2-------------|-2-----2-----2-----2-------------|
 
     |-3-|   |-3-|   |-3-|   |-3-|
     E E E   E E E   E E E   E E E    E   S S E   S S E   S S S S S S
E||--2-0-----0----------------------|---------------------------------|
B||------2-----2-0---2-0-----0------|---------------------------------|
G||----------------------2-----2----|---------------------------------|
D||--------------------4---------4--|-2~----------------------2-------|
A||----0-----4---0-------4---3-2-0--|-----0---4-----0-4-------2-4-----|
E||--2---2-----2-----2--------------|-2-----2-----2---0---0-0-----0-2-|

    E   S S E   S S E   S S S S S S   E   S S E   S S E   S S S S S S
E||---------------------------------|---------------------------------|
B||---------------------------2-0---|---------------------------0-----|
G||-------------------------------2-|---------------------2-------2---|
D||-4~------------------4-----------|-4~----------2-----------------2-|
A||-------------4-------------------|---------------------------------|
E||-2---2-2-2---2-2-2---2-2-2---2-2-|-0---0-0-0---0-0-0---0-0-0---0-0-|

    E   S S E   S S E   S S E   S S   S S S S E   S S E   S S S S S S
E||---------------------------------|---------------------------------|
B||---------------------------------|---------------------------------|
G||---------------------------------|---------------------------------|
D||-4~----------0-0-0---0-0-0---2---|-------------------------2-------|
A||-5---5-5-5---4-------2-------5-5-|-4-2-4~----------4-------2-4-----|
E||---------------------------------|-0---0-0-0---0-0-0---0-0-----0-2-|

    E   S S E   S S E   S S S S S S   E   S S E   S S E   S S S S S S
E||---------------------------------|---------------------------------|
B||---------------------------2-0---|---------------------------0---0-|
G||-------------------------------2-|---------------------2-------2---|
D||-4~------------------4-----------|-4~----------2-------------------|
A||-------------4-------------------|---------------------------------|
E||-2---2-2-2---2-2-2---2-2-2---2-2-|-0---0-0-0---0-0-0---0-0-0---0-0-|

    E   S S E   S S E   S S E   S S   S S S S E   S S E   S S S S S S
E||-2~--------------------------0---|---------------------------------|
B||-------------2-------0-----------|-2-0-2~--------------------------|
G||---------------------------------|---------------------------------|
D||-0---0-0-0---0-0-0---0-0-0---0-0-|-------------------------2-------|
A||---------------------------------|-----------------4-------2-4-----|
E||---------------------------------|-0---0-0-0---0-0-0---0-0-----0-2-|

    E   S S E   S S E   S S S S S S   E   S S E   S S E   S S S S S S
E||-------------------------0-------|-2-------------------------------|
B||---------0-------2---------------|-----5~--2---0---2---------------|
G||---------------------------------|---------------------4~--2-------|
D||-4-----0-0---0-0-0---0-0---0-----|-0---0-0-0---0-0-0---0-0---0-4---|
A||-5---5-------------------0---0---|-------------------------0---0---|
E||-------------------------------2-|-------------------------------2-|

    E   S S E   S S E   S S S S S S   E   S S E   S S E   S S S S S S
E||---------------------------------|---------------------------------|
B||-----2---0-------0---------------|---------------------------------|
G||-------------2-------4~--2-------|---------------------------------|
D||-2---------------------------2---|-4-------4~--------------2-------|
A||-------------------------2-0-2-0-|-------------4~----------2-0-2-0-|
E||-0---0-0-0---0-0-0---0-0---------|-0---0-0-0---0-0-0---0-0---------|

    E   S S E   S S E   S S S S S S   E   S S E   S S E   S S S S S S
E||-------------------------0-------|-2---0---------------------------|
B||---------0-------2---------------|---------2---0---2---0-----------|
G||---------------------------------|-------------------------2-------|
D||-4-----------1-1-1---1-1---------|-1---1-1-1---1-1-1---1-1-----4---|
A||-6---6-6-6---------------2---2-0-|-------------------------2---2-0-|
E||---------------------------0-----|---------------------------0-----|

    E   S S E   S S E   S S S S S S   E   E   S S E   S E   S S S E  
E||---------------------------------|---------------------------------|
B||-----2---0-------0---------------|-----------------0/0/--0/0/0/0/--|
G||-------------2-------4~--2-------|-----------------1~--------------|
D||-2---------------------------2---|-3~------------------------------|
A||-------------------------2-0-2-0-|---------------------------------|
E||-0---0-0-0---0-0-0---0-0---------|-1---1---1-1-1-------------------|

    E   S S E   S S E   S S E   S S   E   S S E   S S E   S S E   S S
E||---------------------------------|-------------0---------------0---|
B||-----------------------------0---|-----2---------------2-----------|
G||-------------------------2-------|---------------------------------|
D||-4-------2-------4-----0-0---0-0-|---------------------------------|
A||-5---5-5-5---5-5-5---5-----------|---------------------------------|
E||---------------------------------|-0---0-0-0---0-0-0---0-0-0---0-0-|

    E   S S S S S S S S S E   S S S   S S S S S S S S S S S S S S S S
E||-2~------------------------------|-2-0---0-------------------------|
B||---------------------------------|-----2---2-0-2-0---0-------------|
G||---------------------------------|-----------------2---2---2-------|
D||---------------------------------|-----------------------4---4-2---|
A||---------0-0-2-2-------3-----2---|---------0---2---------3-----2---|
E||-2---2-2---------2-2-2-----2---2-|-2---2-----------2---------2---2-|

    E   S S E   S S E   S S E   S S   E   S S E   S S E   S S E   S S
E||---------------------------------|-------------0-------------------|
B||-----------------------------0---|-----2---------------2-----------|
G||-------------------------2-------|---------------------------------|
D||-4-------2-------4-----0-0---0-0-|-----------------------------2---|
A||-5---5-5-5---5-5-5---5-----------|---------------------------------|
E||---------------------------------|-0---0-0-0---0-0-0---0-0-0---0-0-|

    E   S S S S S S S S S E   S S S   S S S S S S S S S S S S S S S S
E||---------------------------------|-2-0---0-------------------------|
B||---------------------------------|-----2---2-0-2-0---0-------------|
G||---------------------------------|-----------------2---2---2-------|
D||-4~------------------------------|-----------------------4---4-2---|
A||---------0-0-2-2-------3-----2---|---------0---2---------3-----2---|
E||-2---2-2---------2-2-2-----2---2-|-2---2-----------2---------2---2-|

    E   S S E   S S E   S S E   S S   E   S S E   S S E   S S E   S S
E||---------------------------------|-------------0---------------0---|
B||-----------------------------0---|-----2---------------2-----------|
G||-------------------------2-------|---------------------------------|
D||-4-------2-------4-----0-0---0-0-|---------------------------------|
A||-5---5-5-5---5-5-5---5-----------|---------------------------------|
E||---------------------------------|-0---0-0-0---0-0-0---0-0-0---0-0-|

    E   S S S S S S S S S E   S S S   S S S S S S S S S S S S S S S S
E||-2~------------------------------|-2-0---0-------------------------|
B||---------------------------------|-----2---2-0-2-0---0-------------|
G||---------------------------------|-----------------2---2---2-------|
D||---------------------------------|-----------------------4---4-2---|
A||---------0-0-2-2-------3-----2---|---------0---2---------3-----2---|
E||-2---2-2---------2-2-2-----2---2-|-2---2-----------2---------2---2-|

    E   S S E   S S E   S S E   S S   E   S S E   S S E   S S E   S S
E||---------------------------------|-------------0-------------------|
B||-----------------------------0---|-----2---------------2-----------|
G||-------------------------2-------|---------------------------------|
D||-4-------2-------4-----0-0---0-0-|-----------------------------2---|
A||-5---5-5-5---5-5-5---5-----------|---------------------------------|
E||---------------------------------|-0---0-0-0---0-0-0---0-0-0---0-0-|

    E   S S S S S S S S S E   S S S   S S S S S S S S S S S S S S S S
E||---------------------------------|-0---------------------------0-2-|
B||---------------------------------|---2-0-------------------0-2-----|
G||---------------------------------|---------------------------------|
D||-4~------------------------------|-------4-2-----------2-4---------|
A||---------0-0-2-2-------3-----2---|---------0-4-2---2-4---3-----2---|
E||-2---2-2---------2-2-2-----2---2-|-2---2---------2-----------2---2-|

    E   S E.    E   S E.    E   E     E   S E.    E   S E.    E   E
E||---------------------------------|---------------------------------|
B||-------2-----------2-----0---2---|-------2-----------2-----0---2---|
G||---------------------------------|---------------------------------|
D||-------4-----------4-----2---4---|-0---0-4-----0---0-4-----2---4---|
A||-4---4-------4---4---------------|---------------------------------|
E||-2---2-------2---2---------------|-3---3-------3---3---------------|

    E   S E.    E   S E.    E   E     E   S E.    E   S S S S S S S S
E||---------------------------------|-----------------------------0-2-|
B||-------2-----------2-----0---2---|-------2-----------------0-2-----|
G||---------------------------------|---------------------------------|
D||-1---1-4-----1---1-4-----2---4---|-0---0-4-----0-------2-4---------|
A||---------------------------------|-----------------2-4-------------|
E||-4---4-------4---4---------------|-3---3-------3-------------------|

    E   S E.    E   S E.    E   E     E   S E.    E   S E.    E   E
E||---------------------------------|---------------------------------|
B||-------2-----------2-----0---2---|-------2-----------2-----0---2---|
G||---------------------------------|---------------------------------|
D||-------4-----------4-----2---4---|-0---0-4-----0---0-4-----2---4---|
A||-4---4-------4---4---------------|---------------------------------|
E||-2---2-------2---2---------------|-3---3-------3---3---------------|

    E   S E.    E   S E.    E   E     E   S E.    E   Q       Q       x3 W
E||---------------------------------|---------------------------------||-2-
B||-------2-----------2-----0---2---|-------2-------------------------||-2-
G||---------------------------------|--------------------------------*||-2-
D||-1---1-4-----1---1-4-----2---4---|-0---0-4-----0-----------2------*||-4-
A||---------------------------------|-----------------4-------4-------||-4-
E||-4---4-------4---4---------------|-3---3-------3---5---------------||-2-
Login or Register to remove this ad.