Ads

Wily Battle (Mega Man 6) Guitar Tab

Submitted: Apr 01, 2016 by ltm_1988

5
Average: 5 (1 vote)
Download | Listen
Game: Mega Man 6
Composer(s): Yuko Kadota
Style: Arrangement, Fingerstyle
Series: Mega Man

AutoScroll: Slow | Medium | Fast
Wily Battle
Mega Man 6
Yuko Takehara
ltm_1988
3/31/2016

MIDI is slowed from game speed.

    S S S S S S S S S S S S S S S S   W
E||---------------------------------|---------------------------------|
B||-------------------------------1-|---------------------------------|
G||---------------------0-----0-1---|-4~------------------------------|
D||---0-1---0-1-3-0-1-3---1-3-------|---------------------------------|
A||-3-----3-1-----------------------|---------------------------------|
E||-----------------4-------1-------|-3-------------------------------|

Speed up

    Q.          H               E     Q.          Q       E   E   E  
E||---------------------------------|---------------------------------|
B||---------------------------------|---------------------------------|
G||---------------------------------|---------------------------------|
D||---------------------------------|---------------------------------|
A||-3-----------3-------------------|-3-----------3-----------1-------|
E||---------------------------------|---------------------3-------3---|

    Q.          H               E     Q.          H               E   
E||---------------------------------|---------------------------------|
B||---------------------------------|---------------------------------|
G||---------------------------------|---------------------------------|
D||---------------------------------|---------------------------------|
A||-3-----------3-------------------|-3-----------3-------------------|
E||---------------------------------|---------------------------------|

    E   E   E   E   E   E   E   E     E   E   E   E   E   E   E   E   
E||---------------------------------|---------------------------------|
B||---------------------------------|-------------------------6-------|
G||*5~------------------------------|-7-----------8-----------0-------|
D||*----------------5-------5---8---|-----------------5-----------8---|
A||-----6-------6-------6-----------|-----6-------6-------6-----------|
E||---------8-----------------------|---------8-----------------------|

    E   E   E   E   E   E   E   E     E   E   E   E   E   E   E   E   
E||---------------------------------|---------------------------------|
B||---------------------------------|-------------------------6-------|
G||-8-----------7~------------------|---------7-------8---------------|
D||-----0-------0-------0-------8---|-----0-------0-------0-------8---|
A||-----------------8-------8-------|-----------------8-------8-------|
E||---------6-----------------------|---------6-----------------------|

    E   E   E   S S E   E   E   E     E   E   E   Q       E   E   E  
E||---------------------------------|---------------------------------|
B||-8~----------6---8~--------------|-6-------------------------------|
G||---------------8-----------------|-------------8-----------7-------|
D||-6-----------6---------------6---|-8-------0-----------0-------8---|
A||-----6-------------------6-------|-----8-------------------8-------|
E||---------8-----------8-----------|-------------6-------------------|

    E   E   E   E   E   E   E   E     E   E   E   E   E   E   E   E   
E||---------8-----------8-------8---|---------8-----------8-------8---|
B||-----------------11--------------|-----11------------------11------|
G||-----8---------------0---8---0---|-----------------8---0-------0---|
D||-10----------10----------8-------|-------------10----------8-------|
A||---------------------------------|---------------------------------|
E||-8---8-------8-------------------|-8---8-------8-------------------|

    E   E   E   E   E   E   E   E     E   E   E   E   E   E   E   E   
E||---------8-------6---8-------8---|-----6---8-----------8---6---8---|
B||---------------------------------|---------------------------------|
G||-5---8-------5-----------8-------|-------------5---8---------------|
D||-8---8-------8-----------6-------|-8---8-------8-----------6-------|
A||---------------------8-------8---|---------------------8-------8---|
E||---------------------------------|---------------------------------|

    E   E   E   E   E   E   E   E     E   E   E   E   E   E   E   E   
E||---------8-----------8-------8---|---------8-----------8-------8---|
B||-----------------9---------------|-----9-------------------9-------|
G||-----10--10----------10--10--10--|---------10------10--10------10--|
D||-10----------10--10--------------|-----10------10----------10------|
A||-8-----------8-----------8-------|-------------8-------------------|
E||---------------------------------|---------------------------------|

    E   E   E   E   E   E   E   E     E   Q       H               E   x3 W
E||---------8-------7---8-------8---|---------------------------------||-3-
B||---------------------------------|-9---9-------8~------------------||-4-
G||-----10------------------10------|--------------------------------*||-5-
D||-10----------10------6-----------|-10--10------9~-----------------*||-5-
A||-8---8-------8---------------8---|---------------------------------||-3-
E||-------------------------8-------|---------------------------------||---
Login or Register to remove this ad.