Ads

Get A Weapon (Mega Man 6) Guitar Tab

Submitted: Jan 03, 2019 by shinobi (Last updated: Jan 11, 2019)

5
Average: 5 (1 vote)
Download | Listen
Game: Mega Man 6
Composer(s): Yuko Kadota
Style: Alternate picking
Series: Mega Man

AutoScroll: Slow | Medium | Fast
Tempo - 128bpm

   E   E   S  E.   E.   S  S  S  S  S    E   E   S  E.   E.   S  S  S  S  S    E   E   S  E.   E.   S  S  S  S  S
E|-------------------------------------|-------------------------------------|-------------------------------------|
B|-------------------------------------|-------------------------------------|-------------------------------------|
G|-------------------------------------|-------------------------------------|-------------------------------------|
D|---------3---------------3-----------|---------6---------------6--------6--|---------3---------------3-----------|
A|----------------------------3--5--6--|----------------------------6--8-----|----------------------------3--5--6--|
E|-1---1------1----1----1--------------|-4---4------4----4----4--------------|-1---1------1----1----1--------------|


   E   E   S  E   E   S  S  S  S  S  S  S    E   E   S  E.   E.   S  S  S  S  S
E|-----------------------------------------|-------------------------------------|
B|-----------------------------------------|-------------------------------------|
G|-----------------------------------------|-------------------------------------|
D|---------6----------6--------------------|---------3---------------3-----------|
A|-----------------------6-----8--6--------|----------------------------3--5--6--|
E|-4---4------4---4---------8--------8--4--|-1---1------1----1----1--------------|


   E   E   S  E.   E.   S  S  S  S  S    E   E   S  E.   E.   S  S  S  S  S    E   E   S  E   E   S  S  S  S  S  S  S
E|-------------------------------------|-------------------------------------|-----------------------------------------|
B|-------------------------------------|-------------------------------------|-----------------------------------------|
G|-------------------------------------|-------------------------------------|-----------------------------------------|
D|---------6---------------6--------6--|---------3---------------3-----------|---------6----------6--------------------|
A|----------------------------6--8-----|----------------------------3--5--6--|-----------------------6-----8--6--------|
E|-4---4------4----4----4--------------|-1---1------1----1----1--------------|-4---4------4---4---------8--------8--4--|
Login or Register to remove this ad.