Ads

Flame Man (Mega Man 6) Guitar Tab

Submitted: Feb 29, 2016 by ltm_1988

0
Download | Listen
Game: Mega Man 6
Composer(s): Yuko Kadota
Style: Arrangement, Fingerstyle
Series: Mega Man

AutoScroll: Slow | Medium | Fast
Flame Man
Mega Man 6
Yuko Takehara
ltm_1988
12/2/2015

    E   E   E   Q       E   E   E     E   E   E   Q       E   E   E  
E||---------------------------------|---------------------------------|
B||---------------------------------|-1-------------------------------|
G||-------------1~--------------1~--|-------------3~------1-----------|
D||---------1-----------1---4-------|-------------4~----------4~--1---|
A||-----3---------------------------|-----1---4-----------------------|
E||-4-------------------------------|-2-------------------------------|

Slow down

    E   E   E   Q       E   E   E     E   E   E   E   Q       Q      
E||---------------------------------|---------------------------------|
B||---------------------------------|---------------------------------|
G||---------------------------------|-------------------------3-------|
D||-------------2~--------------1---|-------------4~--4---------------|
A||-4~------2---2-------2---4-------|-4~--1---4~--------------4~------|
E||-0---4---------------------------|-2-------------------------------|

Speed up

    E.    S S Q       E   S E   E     E.    S S S E.    S S S E   E  
E||---------------------------------|---------------------------------|
B||---------------------------------|-4~------------------------------|
G||-5~------------------------------|-------------6-------5---3-------|
D||---------------------------------|-----------------------------6---|
A||---------3-4-------------3---4---|---------3-4-------------3---4---|
E||-4-----4-----------4---4---------|-4-----4-----------4---4---------|

    E.    S S E   E   E   S E   E     E.    S S E   S Q       E   E     E.    S S E   E   S S S E   E  
E||---------------------------------|---------------------------------|---------------------------------|
B||---------------------------------|---------------------------------|---------------------------------|
G||---------------------------------|---------------------------------|---------------------------------|
D||-4~------------------------------|-----------------1---------------|-------------------------4---6---|
A||---------1-2---1---------1---2---|-4~------1-2---1---------4-------|---------3-4---3-----6---3---4---|
E||-2-----2-----------2---2---------|-2-----2---------------------2---|-4-----4-----------4---4---------|

    E.    S S S S E   S S S E   E     E   S S E   E   S S S S E   E  
E||---------------------------------|---------------------------------|
B||---------------------------------|---------------------------------|
G||*5-----------3~------------------|---------------------------------|
D||*--------------------6---4-------|---------------------0-------1~--|
A||---------3-4---3---------3---6---|-4---3---4---3---4-------1---2---|
E||-4-----4-----------4---4---------|-2-----2-----------2---2---------|

    E   S S E   S S Q       Q         E.    S S E   E   S S S E   E  
E||---------------------------------|---------------------------------|
B||---------------------------------|---------------------------------|
G||---------------------------------|---------------------------------|
D||---------------------------------|-------------------------4---6---|
A||-----3---3---6~--6~------6~------|---------3-4---3-----6---3---4---|
E||-4-----4-------4-----------------|-4-----4-----------4---4---------|

    E.    S S S S E   S S S E   E     E   S S E   E   S S S S E   E     E   S E   E   S E   E   E   E  
E||---------------------------------|---------------------------------|---------------------------------|
B||---------------------------------|---------------------------------|---------------------------------|
G||-5-----------3~------------------|---------------------------------|---------------------------------|
D||---------------------6---4-------|---------------------0-------1~--|-----1~----------------------1~--|
A||---------3-4---3---------3---6---|-4---3---4---3---4-------1---2---|---------------------1---4-------|
E||-4-----4-----------4---4---------|-2-----2-----------2---2---------|-3-----3---3---3-3---------------|

    S E   S S S S S S S S S S S S S   S E   S S S S S S S S S S S S S
E||---------------------------------|---------------------------------|
B||---------------------1-----------|---------------------------------|
G||-----------1---1-3-1-----3---1---|-----------------1---3---1-------|
D||-------------1---------1---------|-----------4---4---4---------4---|
A||---------------------------3-----|-------------4---------4---1-----|
E||-4-4---4-4---------------------4-|-2-2---2-2---------------------2-|

    S E   S S S S S S S S S S S S S   S E   S Q       S S E   E   E  
E||---------------------------------|---------------------------------|
B||---------------------1-----------|-4-------2-------1---------------|
G||-----------1---1-3-1-----3---1---|-------------------------3---1---|
D||-------------1---------1---------|---------------------------------|
A||---------------------------3-----|-------------------------1---4---|
E||-4-4---4-4---------------------4-|-2-2---2-2---------2-2-----------|

    S E   S S S S S S S S S S S S S   S E   S S S S S S S S S S S S S
E||---------------------------------|---------------------------------|
B||---------------------1-----------|---------------------------------|
G||-----------1---1-3-1-----3---1---|-----------------1---3---1-------|
D||-------------1---------1---------|-----------4---4---4---------4---|
A||---------------------------3-----|-------------4---------4---1-----|
E||-4-4---4-4---------------------4-|-2-2---2-2---------------------2-|

    S E   S E   S S S E   S S S S S   E   E   E   E   E   E   E   E  
E||---------------------------------|---------------------------------|
B||---------------------------------|-------------------------0---2---|
G||-----------------1---------------|---------1-------3---------------|
D||-2~----------2-4---2-----4---2---|-4---4-------4-------4-------4---|
A||-----------------------2---------|---------------------------------|
E||-0-0---0-0-------0---------4---0-|-2-------2-------2-------2-------|

    E   S S E   S S S S E   E   E     E   S S S S S S S S E   E   E  
E||---------------------------------|-------0-2-0---------------------|
B||-4---2-2-0-------0---2---4~------|-4---4-------4-2-0---2---4~------|
G||-------------3-------------------|---------------------------------|
D||---------1-------------------1---|---------1-------------------1---|
A||---------------------------------|---------------------------------|
E||-4-------------4---4-------------|-4-------------4---4-------------|

    E   S S S S S S S S E   E   E     E.    S S E   S S S E   E   E  
E||---------------------------------|---------------------------------|
B||-4---2-2-0-------0---2---4-------|---------------------------------|
G||-------------3---------------3---|-1~------------------------------|
D||---------------------------------|-----------------4~--------------|
A||-----------------------------4---|---------2---------------1---4---|
E||-2-----2---2---2---2-------------|-0-----0---0---0---2-2-----------|

    E   S S E   S S S S E   E   E     E   S S S S S S S S E   E   E  
E||---------------------------------|-------0-2-0---------------------|
B||-4---2-2-0-------0---2---4~------|-4---4-------4-2-0---2---4~------|
G||-------------3-------------------|---------------------------------|
D||---------1-------------------1---|---------1-------------------1---|
A||---------------------------------|---------------------------------|
E||-4-------------4---4-------------|-4-------------4---4-------------|

    E   S S S S S S S S E   E   E     E.    S S E   S S S E   E   E  
E||---------------------------------|---------------------------------|
B||-4---2-2-0-------0---2---4-------|---------------------------------|
G||-------------3---------------3---|-1~------------------------------|
D||---------------------------------|-----------------4~--------------|
A||-----------------------------4---|---------2---------------1---4---|
E||-2-----2---2---2---2-------------|-0-----0---0---0---2-2-----------|

    E.    S E   S E   S E   E   E     E.    S E   S Q.          S S S   E.    S S E   E   S S S E   E   x3 W
E||---------------------------------|-4~------------------------------|---------------------------------||-4-
B||-----------------------------4---|---------------------------------|---------------------------------||-4-
G||-------------------------5-------|---------------------------------|--------------------------------*||-5-
D||-6~------------------6-----------|---------------------------------|-6-----------------------4---6--*||-6-
A||-------------------------6---6---|---------------------------------|---------3-4---3-----6---3---4---||-6-
E||-4-----4-4---4-4---4-4-----------|-4-----4-4---4-4-------------2-2-|-4-----4-----------4---4---------||-4-
Login or Register to remove this ad.