Ads

Gyro Man (Mega Man 5) Guitar Tab

Submitted: Oct 05, 2011 by auriplane (Last updated: Oct 05, 2011)

5
Average: 5 (2 votes)
Download | Listen
Game: Mega Man 5
Composer(s): Mari Yamaguchi
Style: Alternate picking, Transcription
Series: Mega Man

AutoScroll: Slow | Medium | Fast
                   Mega Man 5 - Gyro Man GUITAR TAB
                       Composed by Mari Yamaguchi

                Tabbed by Auriplane ([email protected])




        Intro

   E   E   E   S S  S S E   Q        E   E   E   S S  S S E   Q
e |13--13--13----13|--1313----------|13--13--13----13|--1313----------|
B |----------------|----------------|----------------|----------------|
G |----------------|----------------|----------------|----------------|
D |----------------|----------------|----------------|----------------|
A |----------------|----------------|----------------|----------------|
E |----------------|----------------|----------------|----------------|

   E   E   E   S S  S S E   Q        E   E   E   S S  S S E   Q
e |16--16--16----16|--1616----------|16--16--16----16|--1616----------|
B |----------------|----------------|----------------|----------------|
G |----------------|----------------|----------------|----------------|
D |----------------|----------------|----------------|----------------|
A |----------------|----------------|----------------|----------------|
E |----------------|----------------|----------------|----------------|

   E   E   E   S S  S S E   S S E    S E.    Q        S E.    Q        H
e |19--19--19----19|--1919--191919--|----------------|--------10------|----------------|
B |----------------|----------------|--11----13------|--13------------|----------------|
G |----------------|----------------|----------------|----------------|----------------|
D |----------------|----------------|----------------|----------------|----------------|
A |----------------|----------------|----------------|----------------|----------------|
E |----------------|----------------|----------------|----------------|----------------|

        Part A

   Q.          S S  S E.    E   S S  H                Q       S E.
e |6-----------8-6-|-/10----8---6---|----------------|----------------|
B |----------------|--------------9-|L---------------|L---------9-----|
G |----------------|----------------|----------------|----------------|
D |----------------|----------------|----------------|----------------|
A |----------------|----------------|----------------|----------------|
E |----------------|----------------|----------------|----------------|

   Q.          S S  S E.    E   E    E   S S Q        H
e |6-----------8-6-|--6-------------|----------------|----------------|
B |----------------|--------9---7---|6---7-9-L-------|L---------------|
G |----------------|----------------|----------------|----------------|
D |----------------|----------------|----------------|----------------|
A |----------------|----------------|----------------|----------------|
E |----------------|----------------|----------------|----------------|

   Q.          S S  S E.    E   S S  H                Q       S E.
e |6-----------8-6-|-/10----8---6---|----------------|----------------|
B |----------------|--------------9-|L---------------|L---------9-----|
G |----------------|----------------|----------------|----------------|
D |----------------|----------------|----------------|----------------|
A |----------------|----------------|----------------|----------------|
E |----------------|----------------|----------------|----------------|

   Q.          E    E.    E.    E    H                E   E.    E.
e |----------------|----------------|----------------|----11----11----|
B |7-----------7---|7-----6---------|----------------|----------------|
G |----------------|------------8---|L---------------|----------------|
D |----------------|----------------|----------------|----------------|
A |----------------|----------------|----------------|----------------|
E |----------------|----------------|----------------|----------------|

        Part B

   Q.          E    E   E   S E.     E.    E.    E    E   S S Q
e |11----------9---|----------9-----|11----9-----14--/11--9-9-L-------|
B |----------------|----9---12------|----------------|----------------|
G |----------------|----------------|----------------|----------------|
D |----------------|----------------|----------------|----------------|
A |----------------|----------------|----------------|----------------|
E |----------------|----------------|----------------|----------------|

   Q.          E    E   E   S E.     E.    E.    E    E   S S Q
e |11----------9---|----------9-----|11----9-----14--/11--9-9-L-------|
B |----------------|----9---12------|----------------|----------------|
G |----------------|----------------|----------------|----------------|
D |----------------|----------------|----------------|----------------|
A |----------------|----------------|----------------|----------------|
E |----------------|----------------|----------------|----------------|

   Q.          E    E   E   S E.     E.    E.    E    E.    E.    E
e |9---------------|----------------|----------------|9-----------9---|
B |------------12--|--------9-11----|12----9-----12--|------11--------|
G |----------------|----9-----------|----------------|----------------|
D |----------------|----------------|----------------|----------------|
A |----------------|----------------|----------------|----------------|
E |----------------|----------------|----------------|----------------|

   E.    E.    E    E.    E.    E    H                Q.          S S  H                H
e |11----------11--|13----14----16--|16--------------|L----------20-18|L---------------|L---------------|
B |------12--------|----------------|----------------|----------------|----------------|----------------|
G |----------------|----------------|----------------|----------------|----------------|----------------|
D |----------------|----------------|----------------|----------------|----------------|----------------|
A |----------------|----------------|----------------|----------------|----------------|----------------|
E |----------------|----------------|----------------|----------------|----------------|----------------|

        Part C

   Q   S E   E   S  E.    E.    E    E.    E.    E    E   S S Q
e |----------------|----------------|----------------|----------------|
B |----1414--14--14|16----------16--|17----14--------|------16--------|
G |----------------|------16--------|------------14--|----16----------|
D |----------------|----------------|----------------|16--------------|
A |----------------|----------------|----------------|----------------|
E |----------------|----------------|----------------|----------------|

   Q   S E   E   S  E.    E.    E    E.    E.    E    E   S S Q
e |----------------|14----------14--|17--------------|------19--------|
B |----1717--17--17|------16--------|------17----14--|----19----------|
G |----------------|----------------|----------------|16--------------|
D |----------------|----------------|----------------|----------------|
A |----------------|----------------|----------------|----------------|
E |----------------|----------------|----------------|----------------|

        Repeat back to Part A.

Login or Register to remove this ad.