Ads

Gravity Man (Mega Man 5) Guitar Tab

Submitted: Apr 27, 2015 by ltm_1988

2
Average: 2 (1 vote)
Download | Listen
Game: Mega Man 5
Composer(s): Mari Yamaguchi
Style: Arrangement, Fingerstyle
Series: Mega Man

AutoScroll: Slow | Medium | Fast
Gravity Man
Mega Man 5
Mari Yamaguchi
ltm_1988
4/16/2015

    S S E   E.    E.    S S S S S S   E   H               S E   S S S
E||---------------------------------|---------------------------------|
B||---------7-----5~----------------|---------------------------------|
G||---------------------------------|---------------------------------|
D||-------------------------------2-|---------------------------------|
A||-----------------------2-4-2-4---|-----------------------4---3-0---|
E||-2-2-2---------------2-----------|-2---2---------------0---------0-|

    S S E   E.    E.    S S S S S S   E   H               S S S S S S
E||---------7-----6~----------------|---------------------------------|
B||---------------------------------|---------------------------------|
G||---------------------------------|-------------------------------2-|
D||-------------------------------2-|-----------------------------2---|
A||-----------------------2-4-2-4---|-------------------------2-4-----|
E||-2-2-2---------------2-----------|-2---2---------------0-2---------|

    S S E   E.    E.    S S S S S S   E   H               S E   S S S   E   S S S S S H               S
E||---------------------------------|---------------------------------|---------------7~----------------|
B||---------7-----5~----------------|---------------------------------|-----4---4-6---------------------|
G||---------------------------------|---------------------------------|-------6-------------------------|
D||-------------------------------2-|---------------------------------|---------------------------------|
A||-----------------------2-4-2-4---|-----------------------4---3-0---|-2-------------------------------|
E||-2-2-2---------------2-----------|-2---2---------------0---------0-|-------------9-------------------|

    S S E   E   S S S S S S E   E     E   E   E   S E   S E   E   E
E||---------------------------------|---------------------------------|
B||-----------------2-----2-----2---|-----0-----------------------2---|
G||*------------2-------------------|-------------------------2-------|
D||*4-4-2---4-----------------------|-------------2~------4-----------|
A||---------------------0---4-------|---------------------0---4-------|
E||-2---0---2-----2---4---------2---|-2---0---2-----2---4---------2---|

    E   S S E   S S S S S S E   E     E   E   E.    E   S E   E   E
E||-0---------------------0-----2---|---------------------------------|
B||-------4-----0---4---------------|---------------------------------|
G||---------------------------------|-4~------------------------------|
D||-------------------1-2---4-------|-------------------1-2---4-------|
A||-2---0---2-----2-------------2---|-2---0---2-----2-------------2---|
E||---------------------------------|---------------------------------|

    E   E   E   S E   S E   E   E     E   E   E   S E   S E   E   E
E||---------------------------------|---------------------------------|
B||-------------2-------2-------2~--|-----3-------2-------3-------2---|
G||---------------------------------|---------------------------------|
D||-0---2---4-----0-------------0---|---------------------------------|
A||-----4---5---------------0-------|-----------------------------3---|
E||-------------------0-2-----------|-3---2---3-----3---2-3---3-------|

    E   E   E   S E   S E   E   S S   E   E   E   Q       E   E   E
E||---------------------------------|-------------0-------------------|
B||-1~----------------------------1-|-2~------------------3---2~------|
G||-------------1---------------4---|---------4-------------------4---|
D||---------------------------------|-----3---------------------------|
A||-------------------------3---3---|-4-------------------------------|
E||-4---2---4-----4---2-4-----------|---------------------------------|

    S S E   E   S S S S S S E   E     E   E   E   S E   S E   E   E
E||---------------------------------|---------------------------------|
B||-----------------2-----2-----2---|-----0-----------------------2---|
G||-------------2-------------------|-------------------------2-------|
D||-4-4-2---4-----------------------|-------------2~------4-----------|
A||---------------------0---4-------|---------------------0---4-------|
E||-2---0---2-----2---4---------2---|-2---0---2-----2---4---------2---|

    E   S S E   S S S S S S E   E     E   E   E.    E   S E   E   E
E||-0---------------------0-----2---|---------------------------------|
B||-------4-----0---4---------------|---------------------------------|
G||---------------------------------|-4~------------------------------|
D||-------------------1-2---4-------|-------------------1-2---4-------|
A||-2---0---2-----2-------------2---|-2---0---2-----2-------------2---|
E||---------------------------------|---------------------------------|

    E   E   E   S E   S E   E   E     E   E   E   S E   S E   E   E
E||---------------------------------|---------------------------------|
B||-------------2-------2-------2~--|-----3-------2-------3-------2---|
G||---------------------------------|---------------------------------|
D||-0---2---4-----0-------------0---|---------------------------------|
A||-----4---5---------------0-------|-----------------------------3---|
E||-------------------0-2-----------|-3---2---3-----3---2-3---3-------|

    E   E   E   S E   S E   E   S S   Q       E.    E   S E   E   E
E||---------------------------------|---------------------------------|
B||-1~------------------------------|---------------------------------|
G||-------------1---------------4-5-|-6~------------------------------|
D||---------------------------------|---------------3-----------------|
A||-------------------------3---3---|-4-------6-----------4---4---4---|
E||-4---2---4-----4---2-4-----------|-------------------4-------------|

    Q.          H               S S   Q.          E.    S E   E   S S
E||---------------------------------|---------------------------------|
B||-9~----------------------------9~|-------------------------------9~|
G||-----------------------------11--|-----------------------------11--|
D||-0-----------0-----------------0-|---------------------------------|
A||---------------------------------|---------------------------------|
E||---------------------------------|-11----------11----9-11--11--11--|

    Q       E   Q       Q       S S   E   E   E   E.    S E   E   E  
E||---------------------------------|-----9---11----------------------|
B||-------------9-------9-------9---|-------------9~------------------|
G||---------11----------------------|---------------------------------|
D||-0-----------0-----------------0-|---------------------------------|
A||---------------------------------|---------------------------------|
E||---------------------------------|-11----------11----9-11--11--11--|

    E   E   E   Q       Q       S S   E   Q       Q.          E.    S
E||---------------------------------|---------------------------------|
B||-----------------------------0---|---------------------------------|
G||-------------11------9~----------|-0-----------9~----------11------|
D||-0-------9---0-----------------0-|-11--12------------------------0-|
A||-----9---------------------------|-------------10------------------|
E||---------------------------------|---------------------------------|

    Q.          Q.          E.    S   Q       E   E   S S E   E   E  
E||---------------------------------|---------------------------------|
B||-9~------------------------------|-----------------7-------9-------|
G||-------------------------11------|-8-------10----------------------|
D||-------------------------------11|---------------------------------|
A||-11----------11------------------|---------------------------------|
E||---------------------------------|-9-----------9-----7-9---9---9---|

    Q.          H               S S   Q.          E.    S E   E   S S
E||---------------------------------|---------------------------------|
B||-9~----------------------------9~|-------------------------------9~|
G||-----------------------------11--|-----------------------------11--|
D||-0-----------0-----------------0-|---------------------------------|
A||---------------------------------|---------------------------------|
E||---------------------------------|-11----------11----9-11--11--11--|

    Q       E   Q       Q       S S   E   E   E   E.    S E   E   E  
E||---------------------------------|-----9---11----------------------|
B||-------------9-------9-------9---|-------------9~------------------|
G||---------11----------------------|---------------------------------|
D||-0-----------0-----------------0-|---------------------------------|
A||---------------------------------|---------------------------------|
E||---------------------------------|-11----------11----9-11--11--11--|

    E   E   E   Q       Q       S S   E   Q       Q.          E.    S
E||---------------------------------|---------------------------------|
B||-----------------------------0---|---------------------------------|
G||-------------11------9~----------|-0-----------9~----------11------|
D||-0-------9---0-----------------0-|-11--12------------------------0-|
A||-----9---------------------------|-------------10------------------|
E||---------------------------------|---------------------------------|

    Q.          Q.          E.    S   Q       E   E   S S E   E   S S
E||---------------------------------|-------------------------8-----9-|
B||-9~------------------------------|---------9-------11--------------|
G||-------------------------11------|-8-------------------------------|
D||-------------------------------11|---------------------------------|
A||-11----------11------------------|-11----------11----9-11--11--11--|
E||---------------------------------|-------------------------------9-|

    S E   S E.    S S S E   E   E     S E   S E   E   E   E   S E   S
E||---------------9-7---------------|---------------------------------|
B||-------------------9-7---8---9---|---7-----8---7-------------------|
G||---------------------------------|-------9-------------6---9-------|
D||---9-----9-----------------------|-9---------------9---------9---9-|
A||---------------------------------|---------------------------------|
E||---9---9-9-----------------------|-------------------------------9-|

                             |-3-|     |-3-|   |-3-|   |-3-|
    S E   S E   S S S E   S  E E E     E E E   E E E   E E E  E   S S
E||---------------------------------|------------10------8------------|
B||-------------------7-------10-8--|--9-----------8---7---6----------|
G||---------------6-9-----9---------|----8-7---6--------------9-------|
D||---9-----9---9-------------------|-----------------------------9-9-|
A||---------------------------------|---------------------------------|
E||---9---9-9-----------------------|-------------------------------9-|

                                       |-3-|   |-3-|   |-3-|
    S E   S S S S E   S S E   S S S    E E E   E E E   E E E  S S S S
E||------------14-14--13--------11--|----9---------6------------------|
B||---------------------------------|------------0-------9----8-------|
G||-----------11-------10-10--9---7-|--6---6---5-----------0----7-6---|
D||---9-----9-----------------------|------------------7--------------|
A||---------------------------------|-------------------------------9-|
E||---9---9-9-----------------------|-------------------------------9-|

    E   S S S S S S S S S S S S S S   S S S S S S S H               S x3 W
E||-------------------------------7-|-------9-109---12~---------------||-6-
B||---------------6-9-6---0---6-9---|-6-7-9---------------------------||-7-
G||-------6-----6-------6---6-------|-------------10-----------------*||-6-
D||-----6-----6---------------------|---------------9~---------------*||-8-
A||---------8-----------------------|---------------------------------||-9-
E||---------------------------------|---------------------------------||---
Login or Register to remove this ad.