Ads

Dust Man (Mega Man 4) Guitar Tab

Submitted: Feb 12, 2015 by ltm_1988

5
Average: 5 (1 vote)
Download | Listen
Game: Mega Man 4
Composer(s): Yasuaki Fujita, Minae Fujii
Style: Arrangement, Fingerstyle
Series: Mega Man

AutoScroll: Slow | Medium | Fast
Dust Man
Mega Man 4
Minae Fujii
ltm_1988
2/12/2015

    S S Q       S S H                 S S Q       S S H
E||---------------------------------|---------------------------------|
B||-2~------------------------------|-1~------------------------------|
G||-3~------------------------------|-1~------------------------------|
D||---------------------------------|---------------------------------|
A||-1-1-1-------1-1-1---------------|---------------------------------|
E||---------------------------------|-4-4-4-------4-4-4---------------|

    S S Q       S S H                 S S Q       S S Q       S E.
E||-2~------------------------------|-------------------------2-------|
B||---------------------------------|---------------------------1-----|
G||-3~------------------------------|---------------------------------|
D||---------------------------------|---------------------------------|
A||---------------------------------|---------------------------------|
E||-2-2-2-------2-2-2---------------|-2-2-2-------2-2-2-------2-4-----|

    S S E   S E   E   S S S S S E     S S E   S E   E   S S S S S E
E||---------------------------------|---------------------------------|
B||-----2---1-2---2-----2---1-2-----|-----2---1-2---4-----4---2-1-----|
G||-3~------------------------------|-1~------------------------------|
D||---------3---------------3-------|---------1---------------1-------|
A||-1-1-1-----1---1---1---1-----1---|---------------------------------|
E||---------------------------------|-4-4-4-----4---4---4---4-----4---|

    S S E   S E   E   S S S E   E     S S E   S E   E   E   S S S S S
E||---------------------------------|---------------------------------|
B||-----2---1-2---1-----1-2-4-------|-2-------4~----------------------|
G||---------------------------------|---------------------------------|
D||-4~------------------------------|---------------------------------|
A||---------4---------------4-------|---------3---------------------0-|
E||-2-2-2-----2---2---2---2-----2---|-1-1-1-----1---1---1---1-1-3-4---|

    S S E   S E   E   S S S S S E     S S S S S S S E   E   S E   E
E||-----1---------------------------|---------------------------------|
B||---------4-2---4-----2---1-------|-----------------------------1---|
G||*--------------------------3-1---|---1---3---------------3-2-------|
D||*--------3---------------1-------|-4-------------------------------|
A||-1-1-1-----1---------------------|---------4---------1-----3-------|
E||---------------4---4---4-----4---|-2-2-2-----2-2-4-------1-----1---|

    S S E   S E   E   E   E   S E     S S E   S E   S S E   S E   S S
E||---------------------------------|-1~----------------------------1-|
B||-----2---1-2---4~----------1-----|-2~--------------1~----------4---|
G||-----------------------------1---|---------------------------------|
D||---------------------------------|---------------------------------|
A||-1-1-1-----1---------------------|---------4---------------3-------|
E||---------------4---4---4-----4---|-2-2-2-----2---1---1---1-----1---|

    S S E   S S S S S E   E.    S S   S S E   S S S S S E   S E   S S
E||-2~--------4-2---1-----1---------|-----------1-----------1~--------|
B||-------------------4-------------|-4~----------4---2-4-------------|
G||---------------------------------|---------------------------------|
D||-1-1-1---1-1---------------------|-1-1-1---1-1---------------------|
A||---------------4---4---4-----4-4-|---------------4---4---3-3---3-3-|
E||---------------------------------|---------------------------------|

                     |-3-|   |-3-|
    S S E   S S E    E E E   E E E    S S E   S E   E   E   S E   E
E||------------------------------1--|-2~----------------------1-------|
B||--------------------1-2---3-4----|---------------------------------|
G||-3-------------------------------|---------------------------------|
D||-3~---------------0-0-0---0-0-0--|-1-1-1-----1---------------------|
A||-4-4-4---4-4-4-------------------|---------1-----------------------|
E||---------------------------------|---------------0---0---0-2---3---|

    S E   E   S S S S E   S S S S S   S S S S S E   S S E   Q       S
E||---------------------------------|-1-1---2---2-----1---------------|
B||-5~------------------------------|---------------4-----------------|
G||-------------------------5-------|-2-2---3---3---0-2---------------|
D||-5~------------------------------|---------3-----------------------|
A||---3---------3-----4---------4---|-0-0-0-----0---0---0---0---------|
E||-3-----3---3---3-4-----4---4---4-|---------------------------------|

     |-3-|   |-3-|   |-3-|   |-3-|     |-3-|   |-3-|   |-3-|   |-3-|     |-3-|   |-3-|   |-3-|   |-3-|
     E E E   E E E   E E E   E E E     E E E   E E E   E E E   E E E     E E E   E E E   Q   E   E E E
E||--1~--------------1--------------|--2~--------------2-1---------2--|------------------1---4-----5----|
B||--2~----------------4-2~--1-2~---|----------------------4---2~4----|--1~--2-----4--------------------|
G||------------------------------3--|---------------------------------|---------------------------------|
D||----------3---------------3------|---------------------------------|---------------------------------|
A||--1-1-1-----1-1---1---1-------1--|----------4---------------3------|----------4---------------3------|
E||---------------------------------|--2-2-2-----2-1---1---1-------1--|--2-2-2-----2-1---1---1-------1--|

    S S S E.    S S S Q.          S   S S S E.    S S S Q.          S
E||-6-6-4-6-----4-4-4-6~------------|-6-6-4-6-----4-4-4-6~------------|
B||-6-6-4-6-----4-4-4-6~------------|-6-6-4-6-----4-4-4-6~------------|
G||---------------------------------|---------------------------------|
D||---------------------------------|---------------------------------|
A||---------------------------------|---------------------------------|
E||-6-6-6-------6-6-6---------------|-4-4-4-------4-4-4---------------|

    S S S E.    S S S Q.          S   S S S E   S S S E.    S S E.    x3 W
E||-6-6-4-6-----4-4-4-6~------------|-6-6-4-6---6-4-6-------9-8-------||-6-
B||-6-6-4-6-----4-4-4-6~------------|-6-6-4-6---6-4-6-----------9-----||-6-
G||---------------------------------|--------------------------------*||-6-
D||-4-4-4-------4-4-4---------------|-4-4-4-------4-4-4---------6----*||-8-
A||---------------------------------|-------------------------9-------||-8-
E||---------------------------------|---------------------------------||-6-
Login or Register to remove this ad.