Ads

Spark Man (Mega Man 3) Guitar Tab

Submitted: Oct 17, 2014 by ltm_1988

5
Average: 5 (1 vote)
Download | Listen
Game: Mega Man 3
Composer(s): Yasuaki Fujita
Style: Arrangement, Fingerstyle
Series: Mega Man

AutoScroll: Slow | Medium | Fast
Spark Man
Mega Man 3
Yasuaki Fujita
ltm_1988
10/14/2014

    E   S S E   S S E   S S E   S S   E   S S E   S S E   S S E   S S
E||---------------------------------|---------------------------------|
B||---------------------------------|---------------------------------|
G||-----------------3-------2-------|---------------------------------|
D||---------------3---------------3-|-5~----------3-2-3---2-0-2---0---|
A||-5~----------5-------------------|-3---3-3-3---3-3-3---3-3-3---3-3-|
E||-3---3-3-3---3-3-3---3-3-3---3-3-|---------------------------------|

    E   S S E   S S E   S S E   S S   E   S S E   S S E   S S E   S S
E||---------------------------------|---------------------------------|
B||---------------------------------|-1~------------1-3---1-----------|
G||-------------0-2-3-------2-----3-|-------------3-----------3---2---|
D||-5~----------1-1-1---1-1-1---1-1-|-3---3-3-3---3-3-3---3-3-3---3-3-|
A||-6---6-6-6-----------------------|---------------------------------|
E||---------------------------------|---------------------------------|

    S S S S E   S S E   S S E   S S   E   S S E   S S E   S S E   S S
E||---------------------------------|---------------------------------|
B||---------------------------------|---------------------------------|
G||---0-------------3-------2-------|-----0-----------0-------0-------|
D||---------------3---------------3-|-5~----------3-2-3---2-0-2---0---|
A||-5~----------5-------------------|-3---3-3-3---3-3-3---3-3-3---3-3-|
E||-3---3-3-3---3-3-3---3-3-3---3-3-|---------------------------------|

    E   S S E   S S E   S S E   S S   E   S S E   S S E   S S E   S S
E||---------------------------------|---------------------------------|
B||---------------------------------|-1~------------1-3---1-----------|
G||-------------0-2-3-------2-----3-|-------------3-----------3---2---|
D||-5~----------1-1-1---1-1-1---1-1-|-3---3-3-3---3-3-3---3-3-3---3-3-|
A||-6---6-6-6-----------------------|---------------------------------|
E||---------------------------------|---------------------------------|

    E   S S S S S S E   S S S S S S   E   S S S S S S E   S S S S S S
E||---------------------------------|---------------------------------|
B||---------------------------------|---------------------------------|
G||*0-------0-0---0-0---3-----------|-0-------0-0---0-0---3-------0-3-|
D||*----0---3-----3-----0---3-5---3-|-----0---3-----3-----0---3-5---5-|
A||-----------------------------5---|---------------------------------|
E||-3---3-3-----3-3-3---3-3-----3-3-|-3---3-3-----3-3-3---3-3-----3-3-|

    E   S S S S S S E   S S S S S S   E   S E.    S S E   S E.    S S
E||---------------------------------|-------0---------2-----3-----4---|
B||-1---1---1-----1~----------------|-4-----0-----6---2-----3-----4---|
G||-0---------3---0-0---------0---0-|-3-----------5-------------------|
D||-----0---3-5---------0---3-------|---------------------------------|
A||---------------------------------|---------------------------------|
E||-4---4-4-----4-4-4---4-4-----4-4-|-4---4-4-----4-4-4---4-4-----4-4-|

    E   S S S S S S E   S S S S S S   E   S S S S S S E   S S S S S S
E||---------------------------------|---------------------------------|
B||---------------------------------|---------------------------------|
G||-0-------0-0---0-0---3-----------|-0-------0-0---0-0---3-------0-3-|
D||-----0---3-----3-----0---3-5---3-|-----0---3-----3-----0---3-5---5-|
A||-----------------------------5---|---------------------------------|
E||-3---3-3-----3-3-3---3-3-----3-3-|-3---3-3-----3-3-3---3-3-----3-3-|

    E   S S S S S S E   S S S S S S   E   S E.    S S E   S E.    S S
E||---------------------------------|-------0---------2-----3-----4---|
B||-1---1---1-----1~----------------|-4-----0-----6---2-----3-----4---|
G||-0---------3---0-0---------0---0-|-3-----------5-------------------|
D||-----0---3-5---------0---3-------|---------------------------------|
A||---------------------------------|---------------------------------|
E||-4---4-4-----4-4-4---4-4-----4-4-|-4---4-4-----4-4-4---4-4-----4-4-|

    E   S S E   S S S S S S E   S S   E   S S E   S S S S S S E   S S
E||-3---1---------------------------|---------------------------------|
B||---------4---3---4-3---1~--------|-6---4---3---1---1-0---3~3~------|
G||-5~------------------------------|-8~--------------------------0---|
D||-----------------3---3-3-3---3-3-|-0---0-0-0---0-0-----------------|
A||-3---3-3-3---3-3-----------------|---------------------------------|
E||---------------------------------|-----------------3---3-3-3---3-3-|

    E   S S E   S S E   S S E   S S   E   S S E   S S E   S S S S S S
E||-------1-----3---------1-----3---|-------------3-------------------|
B||-4---------------4---------------|-6~----6~--------6~------4~------|
G||---------------------------------|-8-------------------8---7-4~----|
D||-5~------------------------------|-6---6-6-6---6-6-5---5-5-5---5-5-|
A||-3---3-3-3---3-3-1---1-1-1---1-1-|---------------------------------|
E||---------------------------------|---------------------------------|

    E   S S E   S S S S S S E   S S   E   S S E   S S S S S S E   S S
E||-3---1---------------------------|---------------------------------|
B||---------4---3---4-3---1~--------|-6---4---3---1---1-0---3~3~------|
G||-5~------------------------------|-8~--------------------------0---|
D||-----------------3---3-3-3---3-3-|-0---0-0-0---0-0-----------------|
A||-3---3-3-3---3-3-----------------|---------------------------------|
E||---------------------------------|-----------------3---3-3-3---3-3-|

    E   S S E   S S E   S S E   S S   E   E   S E   S Q       Q       x3 W
E||-------1-----3---------1-----3---|---------------------------------||-3-
B||-4---------------4---------------|---------------------------------||-4-
G||---------------------------------|-3---3---3-3---3-3~------4~-----*||-5-
D||-5~------------------------------|--------------------------------*||-5-
A||-3---3-3-3---3-3-1---1-1-1---1-1-|-1---1---1-1---1-1-------2-------||-3-
E||---------------------------------|---------------------------------||---
Login or Register to remove this ad.