Ads

Magnet Man (Mega Man 3) Guitar Tab

Submitted: Oct 31, 2012 by MR_PLOP

5
Average: 5 (3 votes)
Download | Listen
Game: Mega Man 3
Composer(s): Yasuaki Fujita
Style: Arrangement, Fingerstyle
Series: Mega Man

AutoScroll: Slow | Medium | Fast
Magnet Man
Mega Man 3
Composed by Yasuaki Fujita
Tabbed by MR_PLOP

Standard Tuning


  E E E E  E E  E  E   E  S S  S S E  S S  S S Q    E  S S  S S E  S S  S S Q    E. E. H    E
|--------------------|----------------------------|----------------------------|--------------|
|-3---3----8----8-10-|----------------------------|----------------------------|------------8-|
|-5---5---10---10-12-|-----------7-----------7----|-----------7-----------7----|-4--5--7------|
|-0---0--------------|---10p8h10-----10p8h10------|---10p8h10-----10p8h10------|------------5-|
|-3---3----8----8-10-|----------------------------|----------------------------|-2--3--5------|
|--------------------|----------------------------|----------------------------|--------------|


   E E S S S E. +Q   E   Q   E.   Q.       +S  E   S S S S S S S S +H          Q   E.   Q.       +S  S S
|----------------------|-----2----3--------(3)---|---------------------------|-5---3----2--------(2)-------|
|-11-8-6-8---8--(8)----|-0---------------------0-|-4---3---3-----------------|-----------------------3p1---|
|----------------------|-------------------------|-----------5---5-(5)-------|-----------------------------|
|--8-5-5-3---5--(5)----|-------------------------|---------------------------|-0-0-0--0----0-0-0-----0-----|
|----------------------|-------------------------|-3---3---3---3----3--3-3-3-|-----------------------------|
|----------------------|-3-3-3--3----3-3-3-----3-|---------------------------|-----------------------------|
   E E S S S E. +Q   E   E E E  E    E E E     E   E   E   E   E    E  E E E   E E E  E    E E E     E


  S S S S S S S S +H          Q.     S S E.   E.   E   E.   E.   H       +E    E.   E.   Q   E E E
|---------------------------|------------3-----------|-----------------------|-----------0---3-2-0--|
|-0---0---0h1---3-(3)-------|-4------4h6------6----4-|-3---------------------|-1----3---------------|
|---------------------------|------------------------|------4----------------|----------------------|
|---------------------------|------------------------|-----------5-------(5)-|----------------------|
|---------------------------|-3--3-3-3---3--3----3-3-|-2--2----2-2-2-2-2--2--|-0--0----0-0-0-0-0-0--|
|-3---3---3---3----3--3-3-3-|------------------------|-----------------------|----------------------|
  E   E   E   E    E  E E E   E  E E E   E  E    E E   E  E    E E E E E  E    E  E    E E E E E E


  E.   E.   Q   +Q.       E E E E E.   E.   E   E E E E E.   E.   E   E E E E E.   E.   E
|-2----3----5---(5)-----|---3-3-3-3----2------|---1-1-1-1----0------|---5-5---7----0------|
|-----------------------|-------------------3-|-------------------1-|-------8-----------8-|
|-----------------------|---------------------|---------------------|---------------------|
|-0--0----0-0-0--0--0-0-|---------------------|---------------------|---------------------|
|-----------------------|---------------------|-3-3-3-3-3--3----3-3-|-7-7-7-7-7--7----7-7-|
|-----------------------|-3-3-3-3-3--3----3-3-|---------------------|---------------------|
  E  E    E E E  E  E E   E E E E E  E    E E   E E E E E  E    E E   E E E E E  E    E E


  +E   E E  E  E.     E.     E   E E E E  E.   E.   E   E  E  E E E.   E.   E   E  E  E E E.    E.   E
|-----10-8---------------------|---8-8-7--------------|---------8-8-----------|---10-10-8-7------------|
|-(8)------12-10---------------|---------10----8----8-|---12-12---------------|----------------10----8-|
|--------------------12-----12-|-0-0-0-0--0--0----0-0-|----------------9----9-|------------------------|
|------------------------------|----------------------|-----------------------|-0--0--0-0-0--0-----0-0-|
|------------------------------|----------------------|----------------9----9-|------------------------|
|--8---8-8--8-10--10-----10-10-|----------------------|-8--8--8-8-8--8----8-8-|------------------------|
   E   E E  E  E   E      E  E   E E E E  E  E    E E   E  E  E E E  E    E E   E  E  E E E  E     E E


   E E  E Q.     E  E    E E S E E  E E. S S    E   E S  E E  E E.   S S   E  E S E   E  S E E E
|---------7-----------|-10-6---6-8-10-8--6h8-|-10----------8-10-8--------|-3----------3--3-3-3-3--*|
|-10-8-10--------8-10-|------8---------------|-----11-8h11-------------6-|----6-3h6---------------*|
|---------------------|----------------------|-----------------------7---|------------------------*|
|---------------------|----------------------|---------------------------|------------------------*|
|--7-7--7-7--7-7-7--7-|----------------------|---------------------------|------------------------*|
|---------------------|--6-------------------|--8------------------------|------------3----3-3-3--*|
   E E  E E  E E E  E    W                      H.                 Q       Q.       S E.   E E E
Login or Register to remove this ad.

2 comments on Magnet Man

Had to vote this up, as it

5

Had to vote this up, as it has no rating yet for some reason. I appreciate and search more for arrangements than note by note melodies... which are not hard at all to pick out by ear, so why would I need the tab? Anyway, kudos for this. Only thing that would make these better is giving the chord changes, which most don't do. Just makes things easier when figuring out the fingerings.

Thanks for posting this.

5

Thanks for posting this. Great tab.