Login or Register to remove this ad.

Flashman's Stage (Mega Man 2) Guitar Tab

Submitted: Sep 30, 2011 by BacardiBreezer

5
Average: 5 (3 votes)
Download | Listen
Game: Mega Man 2
Composer(s): Manami Ietel, Manami Matsumae, Ogeretsu Kun
Style: Alternate picking, Transcription
Series: Mega Man

AutoScroll: Slow | Medium | Fast
Flashman's Stage
Megaman 2
Composer: Manami Ietel, Manami Matsumae, Ogeretsu Kun 
Tabbed by Bacardibreezer
9/29/11

e|--------------------------------------|----------------------------------7--7-5---------|
B|--------------------------------------|--7-7-7-8--7-7-7-8~---7-7-7-8-------------8-7----|
G|--------4-7--6----5-4-----------------|-------------------------------------------------|
D|------5--------7------5-7--5----------|-------------------------------------------------|
A|--7--------------------------7-5---7--|-------------------------------------------------|
E|--------------------------------------|-------------------------------------------------| x3

e|--------------------------------------|----------------------5-5-5-5-5-7---|
B|--------------------------------------|--7-7-7-8--7-7-7-8~-----------------|
G|--------4-7--6----5-4-----------------|------------------------------------|
D|------5--------7------5-7--5----------|------------------------------------|
A|--7--------------------------7-5---7--|------------------------------------|
E|--------------------------------------|------------------------------------|

e|-----7------7---------------7-------|------------------------------------------|
B|--------10-------10--8--10----------|--8---7-7-----7--------------------8-10---|
G|--9----------------------------9~---|-----------------9--7--9~--------9--------|
D|------------------------------------|------------------------------------------|
A|------------------------------------|------------------------------------------|
E|------------------------------------|------------------------------------------|

e|-----7------7---------------7-------|------------------------------|
B|--------10-------10--8--10----------|--8---7-7-----8--10--7--------|
G|--9----------------------------9~---|------------------------9~----|
D|------------------------------------|------------------------------|
A|------------------------------------|------------------------------|
E|------------------------------------|------------------------------|

e|------7-10~----9~----8~----------|-----------6-7-6-7----------10~----9~----8~-----------|
B|----8----------------------8-----|----8-10-----------10-8------------------------8------|
G|--9--------------------------9~--|--9---------------------9-7----------------------9~---|
D|---------------------------------|------------------------------------------------------|
A|---------------------------------|------------------------------------------------------|
E|---------------------------------|------------------------------------------------------|

e|--------------------------------17-19---|
B|--------------17----------16-19---------|
G|--------14-------16-16-16---------------|
D|--14-17---------------------------------|
A|----------------------------------------|
E|----------------------------------------|
Login or Register to remove this ad.

14 comments on Flashman's Stage

Oh, sweet tab. It feels much

5

Oh, sweet tab. It feels much more like someone actually wrote it than the one I did a recording of. xD

Aleph said Oh, sweet tab. It

Aleph said

Oh, sweet tab. It feels much more like someone actually wrote it than the one I did a recording of. xD

Glad you like it! Now I want to see a vid of it :P

Ohoho, you shall. Sometime.

5

Ohoho, you shall. Sometime. I'm terribly slow at making vids when it comes to guitar stuff. xD

Can't wait ;)

Can't wait ;)

Good job, that other tab was

5

Good job, that other tab was garbage.

Thanks, and yeah I can't

Thanks, and yeah I can't believe any of that dude's tabs were posted.

I think standards were lower

I think standards were lower then.

auriplane said I think

auriplane said

I think standards were lower then.

Definitely - did you guys even check them back then?

I wasn't even on the site yet

I wasn't even on the site yet :-) And when I signed up, I submitted around a hundred tabs through the submissions forum before someone told me I could ask to be able to post them for myself.

auriplane said I wasn't even

auriplane said

I wasn't even on the site yet :-) And when I signed up, I submitted around a hundred tabs through the submissions forum before someone told me I could ask to be able to post them for myself.

Haha, nice. I think I have a bit to go before I would feel that confident

I was thinking of tabbing

I was thinking of tabbing this for that one kid, but you beat me to it.

Here's the other guitar part at least:

e|--------------------------------------|-------------------------------------------------|
B|--------------------------------------|----------------------------------8--8-7---------|
G|--------4-7--6----5-4-----------------|--7-7-7-9--7-7-7-9----7-7-7-9-------------9-7----|
D|------5--------7------5-7--5----------|-------------------------------------------------|
A|--7--------------------------7-5---7--|-------------------------------------------------|
E|--------------------------------------|-------------------------------------------------| x3


e|--------------------------------------|------------------------------------|
B|--------------------------------------|----------------------7-7-7-7-7-8~--|
G|--------4-7--6----5-4-----------------|--7-7-7-9--7-7-7-9------------------|
D|------5--------7------5-7--5----------|------------------------------------|
A|--7--------------------------7-5---7--|------------------------------------|
E|--------------------------------------|------------------------------------|


e|-------------------------------------------------------------------|
B|-------------------------------------------------------------------|
G|-12h14-12-12h14p12-11h12-11-11h12p11-------------------------------|
D|-------------------------------------12h14-14-12h14-12h14-14-12h14-|
A|-------------------------------------------------------------------|
E|-------------------------------------------------------------------| x4


e|------------------------------------------------|
B|-12~---11~-10~--8-10-8-12-8--8-10-8-12-8--8-7-8-|
G|------------------------------------------------|
D|------------------------------------------------|
A|------------------------------------------------|
E|------------------------------------------------| x2

Now it's up to Auriplane if somebody wants the bass tab.

Haha, okay. Here it

auriplane said Haha, okay.

auriplane said

Haha, okay. Here it is.

http://www.gametabs.net/mega-man-2/flashmans-stage-0

Now you two do a collab :P

Perfect tab dude!!!!

5

Perfect tab dude!!!!