Ads

Rainbow Road (Mario Kart 8) Guitar Tab

Submitted: May 13, 2015 by Jacoby

5
Average: 5 (3 votes)
Download | Listen
Game: Mario Kart 8
Composer(s): Shiho Fujii, Ryo Nagamatsu, Yasuaki Iwata, Atsuko Asahi
Style: Alternate picking, Transcription
Series: Mario

AutoScroll: Slow | Medium | Fast
Title: Rainbow Road
SubTitle: Mario Kart 8
Tempo = 160
Synth

Legend
L - tied note
x - dead note
h - hammer on/pull off
b - bend
s - slide
~ - vibrato
g - ghost note
> - accentuated note
t - trill
M - palm mute
. - staccato
P - popping (bass)
S - slapping (bass)
+ - tapping
W - wide vibrato
< - fade in
w - whammy bar
= - tremolo picking
v - brush up
^ - brush down
V - pick stroke up
n - pick stroke down


Guitar 1:

E |----------------------------|-----3--2--5L---|--5--------7-----5-----3----|
B |-----------3--2--3----------|--3-------------|--------3-------------------|
G |--------2-----------2-------|----------------|----------------------------|
D |----------------------------|----------------|----------------------------|
A |----------------------------|----------------|----------------------------|
E |----------------------------|----------------|----------------------------|


--2--3----------|-----------------10-9--10---|----------------------------|
----------------|--------------8-------------|--10-------------------7----|
----------------|----------------------------|--------7--9--------9-------|
----------------|----------------------------|--------------7-------------|
----------------|----------------------------|----------------------------|
----------------|----------------------------|----------------------------|


----------------------------------------------------|
--8--------------8--------7-----------3-------------|
----------------------------------------------------|
----------------------------------------------------|
----------------------------------------------------|
----------------------------------------------------|


----------------------------------------------------|
--7-----------7h-8--3-----5-------------------------|
----------------------------------------------------|
----------------------------------------------------|
----------------------------------------------------|
----------------------------------------------------|


----------------------------|-----3--2--5L---|--5--12----10----5----------|
-----------3--2--3----------|--3-------------|----------------------------|
--------2-----------2-------|----------------|----------------------------|
----------------------------|----------------|----------------------------|
----------------------------|----------------|----------------------------|
----------------------------|----------------|----------------------------|


--5--6--8-------|--15-12-13------|----------------------------|
----------------|----------------|--15-------------15---------|
----------------|----------------|-----------------------16L--|
----------------|----------------|----------------------------|
----------------|----------------|----------------------------|
----------------|----------------|----------------------------|


-----------------------14----------14-15-14---------|--17---|
-----15-------17----------------------------15------|-------|
--16------------------------------------------------|-------|
----------------------------------------------------|-------|
----------------------------------------------------|-------|
----------------------------------------------------|-------|




Synth:

----|--------------------10----8-------------------------|
----|--------------10-------------------11----10---------|
----|--------10------------------------------------------|
----|--12------------------------------------------------|
----|----------------------------------------------------|
----|----------------------------------------------------|


--8--------8----------------------------------------|
-----------------11-------10------------------------|
--------------------------------10L---------10------|
----------------------------------------------------|
----------------------------------------------------|
----------------------------------------------------|


----------------------------|----------------------------|
-----8--10-10-11-10---------|--8--------------------10---|
--10----------------9-------|--------10----------10------|
----------------------------|----------------------------|
----------------------------|----------------------------|
----------------------------|----------------------------|


--12-10---------------------|----------------|----------------|--13-----11---|
-----------10---------------|--14-13-11-9----|--8h-9--11L11---|--------------|
--------------12-10----10---|----------------|----------------|--------------|
----------------------------|----------------|----------------|--------------|
----------------------------|----------------|----------------|--------------|
----------------------------|----------------|----------------|--------------|


Harmony Guitar:


----------------------------|----------------------------|
-----1--4--2--1-------------|----------------------------|
--1--------------3--1--3L---|--3--------1----------------|                             
----------------------------|----------------------------|                                  
----------------------------|----------------------------|  
----------------------------|----------------------------|          


--------------1-----0--------3--------1L------------|--1-------------|
--------1-------------------------------------------|--------1--2----|
--1-------------------------------------------------|----------------|
----------------------------------------------------|----------------|
----------------------------------------------------|----------------|
----------------------------------------------------|----------------|


----------------------------|-------|-------|-------||
--4-----------------4-------|--2----|--4----|-------||
-----------1----------------|-------|-------|--1----||
----------------------------|-------|-------|-------||
----------------------------|-------|-------|-------||
----------------------------|-------|-------|-------||



Harmony Synth:


----|----|--------13----16----15-------18-------16L-----------|--16------------|
----|----|--13------------------------------------------------|--------9--11---|
----|----|----------------------------------------------------|----------------|
----|----|----------------------------------------------------|----------------|
----|----|----------------------------------------------------|----------------|
----|----|----------------------------------------------------|----------------|


----------------------------|----------------------------|
--13----------------13------|--14----13-11----9----------|
-----------10---------------|----------------------------|
----------------------------|----------------------------|
----------------------------|----------------------------|
----------------------------|----------------------------|


------------------------------------------------------------------------|-------||
--9-----11----12L---12-------11-------9-----------------7---------------|--9----||
------------------------------------------------------------------------|-------||
------------------------------------------------------------------------|-------||
------------------------------------------------------------------------|-------||
------------------------------------------------------------------------|-------||


Login or Register to remove this ad.

2 comments on Rainbow Road

Oh my God, this is awesome!

Oh my God, this is awesome! Thank you!

this is incredible

5

this is incredible