Kerning City (Maple Story) Bass Tab

Submitted: Nov 02, 2011 by Lemoncobbler

5
Average: 5 (1 vote)
Download | Listen
Game: Maple Story
Composer(s): Unknown
Style: Fingerstyle, Transcription

Click here for a video example.

AutoScroll: Slow | Medium | Fast
Kerning City
Tab by Lemoncobbler
Maplestory


     H        Q    Q       E   E  E  Q    E  E      W                 
G||---------------------|------------------------|-------------------|
D||---------------------|------------------------|-------------------|
A||---------------------|--5s--7-----5-------5s--|--7----------------|
E||--7--------5----7----|---------7-------7------|-------------------|


  Q     Q    Q    E  E     H        Q    Q       E   E  E  Q    E  E    
------------------------|---------------------|------------------------|
------------------------|---------------------|------------------------|
--7b----5----7----5-----|---------------------|--5s--7-----5-------5s--|
---------------------5--|--7--------5----7----|---------7-------7------|


  W                   E  S  E.  E  Q    E  E     H        Q    Q     
-------------------|--------------------------|---------------------|
-------------------|------------7-------------|---------------------|
--7----------------|-----7s-9------7----5-----|---------------------|
-------------------|-----------------------5--|--7--------5----7----|


  E   E  E  Q    E  E      W                   Q     Q    Q    E  E   
------------------------|-------------------|------------------------|
------------------------|-------------------|------------------------|
--5s--7-----5-------5s--|--7----------------|--7b----5----7----5-----|
---------7-------7------|-------------------|---------------------5--|


  H        Q    Q       E   E  E  Q    E  E      W                 
---------------------|------------------------|-------------------|
---------------------|------------------------|-------------------|
---------------------|--5s--7-----5-------5s--|--7----------------|
--7--------5----7----|---------7-------7------|-------------------|


  E  S  E.  E  Q    E  E     H        Q    Q       E   E  E  Q    E  E    
--------------------------|---------------------|------------------------|
------------7-------------|---------------------|------------------------|
-----7s-9------7----5-----|---------------------|--5s--7-----5-------5s--|
-----------------------5--|--7--------5----7----|---------7-------7------|


  W                   Q     Q    Q    E  E     H        Q    Q     
-------------------|------------------------|---------------------|
-------------------|------------------------|---------------------|
--7----------------|--7b----5----7----5-----|---------------------|
-------------------|---------------------5--|--7--------5----7----|


  E   E  E  Q    E  E      Q    H           E  S  E.  E  Q    E  E   
------------------------|----------------|--------------------------|
------------------------|----------------|------------7-------------|
--5s--7-----5-------5s--|--7----9--------|-----7s-9------7----5-----|
---------7-------7------|----------------|-----------------------5--|


  H        Q    Q       E   E  E  Q    E  E      W                 
---------------------|------------------------|-------------------|
---------------------|------------------------|-------------------|
---------------------|--5s--7-----5-------5s--|--7----------------|
--7--------5----7----|---------7-------7------|-------------------|


  Q     Q    Q    E  E     H        Q    Q       E   E  E  Q    E  E   
------------------------|---------------------|-----------------------|
------------------------|---------------------|-----------------------|
--7b----5----7----5-----|---------------------|--5s--7-----5-------5--|
---------------------5--|--7--------5----7----|---------7-------7-----|


  H        H           E  S  E.  E  Q    E  E     H        Q    Q     
--------------------|--------------------------|---------------------|
--------------------|------------7-------------|---------------------|
--------------------|-----7s-9------7----5-----|---------------------|
--7--------5--------|-----------------------5--|--7--------5----7----|


  E   E  E  Q    E  E      W                   Q     Q    Q    E  E   
------------------------|-------------------|------------------------|
------------------------|-------------------|------------------------|
--5s--7-----5-------5s--|--7----------------|--7b----5----7----5-----|
---------7-------7------|-------------------|---------------------5--|


  H        Q    Q       E   E  E  Q    E  E      Q    H         
---------------------|------------------------|----------------|
---------------------|------------------------|----------------|
---------------------|--5s--7-----5-------5s--|--7----9--------|
--7--------5----7----|---------7-------7------|----------------|


  E  S  E.  E  Q    E  E     H        Q    Q       E   E  E  Q    E  E    
--------------------------|---------------------|------------------------|
------------7-------------|---------------------|------------------------|
-----7s-9------7----5-----|---------------------|--5s--7-----5-------5s--|
-----------------------5--|--7--------5----7----|---------7-------7------|


  W                   Q     Q    Q    E  E     H        Q    Q     
-------------------|------------------------|---------------------|
-------------------|------------------------|---------------------|
--7----------------|--7b----5----7----5-----|---------------------|
-------------------|---------------------5--|--7--------5----7----|


  E   E  E  Q    E  E      Q    H           E  S  E.  E  Q    Q     
------------------------|----------------|-------------------------|
------------------------|----------------|------------7------------|
--5s--7-----5-------5s--|--7----9--------|-----7s-9------7----5----|
---------7-------7------|----------------|-------------------------|


  W                   W                   W                   
-------------------|-------------------|---------------------|
-------------------|-------------------|---------------------|
-------------------|-------------------|--5b~----------------|
-------------------|-------------------|---------------------|


  H        H           H        H           H        H         
--------------------|--------------------|--------------------|
--------------------|--------------------|--------------------|
--------------------|--------------------|--------------------|
--7--------5--------|--------------------|--------------------|


  H        Q.     E     Q    Q    Q    Q       E   E  E  Q    E  E   E   
---------------------|----------------------|---------------------------|
---------------------|----------------------|---------------------------|
---------------------|----------------------|--5s--7-----5-------5s--7--|
------------------5--|--7----7----5----7----|---------7-------7---------|


  E  E  Q    E  E  Q       E  E  Q    H            H        Q    Q     
------------------------|-----------------------|---------------------|
------------------------|-----------------------|---------------------|
------------------------|-------------5b--------|---------------------|
--4--4-------5--5-------|--6--7-----------------|--7--------5----7----|


  E   E  E  Q    E  E      W                   E  S  E.  E  Q    Q     
------------------------|-------------------|-------------------------|
------------------------|-------------------|------------7------------|
--5s--7-----5-------5s--|--7----------------|-----7s-9------7----5----|
---------7-------7------|-------------------|-------------------------|


  H        Q    Q       E   E  E  Q    E  E      W                 
---------------------|------------------------|-------------------|
---------------------|------------------------|-------------------|
---------------------|--5s--7-----5-------5s--|--7----------------|
--7--------5----7----|---------7-------7------|-------------------|


  Q     Q    Q    E  E     H        Q    Q       E   E  E  Q    E  E    
------------------------|---------------------|------------------------|
------------------------|---------------------|------------------------|
--7b----5----7----5-----|---------------------|--5s--7-----5-------5s--|
---------------------5--|--7--------5----7----|---------7-------7------|


  W                   E  S  E.  E  Q    E  E     H        Q    Q     
-------------------|--------------------------|---------------------|
-------------------|------------7-------------|---------------------|
--7----------------|-----7s-9------7----5-----|---------------------|
-------------------|-----------------------5--|--7--------5----7----|


  E   E  E  Q    E  E      W                   Q     Q    Q    E  E   
------------------------|-------------------|------------------------|
------------------------|-------------------|------------------------|
--5s--7-----5-------5s--|--7----------------|--7b----5----7----5-----|
---------7-------7------|-------------------|---------------------5--|


  H        Q    Q       E   E  E  Q    E  E      W                 
---------------------|------------------------|-------------------|
---------------------|------------------------|-------------------|
---------------------|--5s--7-----5-------5s--|--7----------------|
--7--------5----7----|---------7-------7------|-------------------|


  E  S  E.  E  Q    E  E     H        H           Q    E  E  Q    Q     
--------------------------|--------------------|-----------------------|
------------7-------------|--------------------|-----------------------|
-----7s-9------7----5-----|-----------4--------|-----------------------|
-----------------------5--|--6-----------------|--2-------2--4----6----|


  H        H           Q     Q    E   E   E  E     H        H         
--------------------|---------------------------|--------------------|
--------------------|---------------------------|--------------------|
-----------5--------|--7b----5----7p--5h--7-----|-----------4--------|
--7-----------------|------------------------5--|--6-----------------|


  Q    E  E  Q    Q       H        H           H        H         
-----------------------|--------------------|--------------------|
-----------------------|--------------------|--------------------|
-----------------------|--------------------|-----------4--------|
--2-------2--4----6----|--7--------2--------|--6-----------------|


  Q    E  E  Q    Q       H        H           Q     Q    E   E   E  E   
-----------------------|--------------------|---------------------------|
-----------------------|--------------------|---------------------------|
-----------------------|-----------5--------|--7b----5----7p--5h--7-----|
--2-------2--4----6----|--7-----------------|------------------------5--|


  H        H           Q    E  E  Q    Q       H        H          
--------------------|-----------------------|---------------------|
--------------------|-----------------------|---------------------|
-----------4--------|-----------------------|---------------------|
--6-----------------|--2-------2--4----6----|--7--------7~--------|


  H.           E  E     H        Q    Q       E   E  E  Q    E  E    
---------------------|---------------------|------------------------|
---------------------|---------------------|------------------------|
---------------------|---------------------|--5s--7-----5-------5s--|
------------------5--|--7--------5----7----|---------7-------7------|


  W                   Q     Q    Q    E  E     H        Q    Q     
-------------------|------------------------|---------------------|
-------------------|------------------------|---------------------|
--7----------------|--7b----5----7----5-----|---------------------|
-------------------|---------------------5--|--7--------5----7----|


  E   E  E  Q    E  E      W                   E  S  E.  E  Q    E  E   
------------------------|-------------------|--------------------------|
------------------------|-------------------|------------7-------------|
--5s--7-----5-------5s--|--7----------------|-----7s-9------7----5-----|
---------7-------7------|-------------------|-----------------------5--|


  H        Q    Q       E   E  E  Q    E  E      W                 
---------------------|------------------------|-------------------|
---------------------|------------------------|-------------------|
---------------------|--5s--7-----5-------5s--|--7----------------|
--7--------5----7----|---------7-------7------|-------------------|


  Q     Q    Q    E  E     H        Q    Q       E   E  E  Q    E  E    
------------------------|---------------------|------------------------|
------------------------|---------------------|------------------------|
--7b----5----7----5-----|---------------------|--5s--7-----5-------5s--|
---------------------5--|--7--------5----7----|---------7-------7------|


  W                   E  S  E.  E  Q    E  E    
-------------------|--------------------------||
-------------------|------------7-------------||
--7----------------|-----7s-9------7----5-----||
-------------------|-----------------------5--||




Duration Legend
---------------
W - whole
H - half
Q - quarter
E - 8th
S - 16th
T - 32nd
X - 64th
. - note dotted
|-n-|  - n-tuplets


Tablature Legend
----------------
L - tied note
x - dead note
g - grace note
(n) - ghost note
> - accentuded note
NH - natural harmonic
AH - artificial harmonic
TH - tapped harmonic
SH - semi harmonic
PH - pitch harmonic
h - hammer on
p - pull off
b - bend
br - bendRelease
pb - preBend
pbr - preBendRelease
brb - bendReleaseBend
\n/ - tremolo bar dip
\n - tremolo bar dive
-/n - tremolo bar Release up
/n\ - tremolo bar inverted dip
/n - tremolo bar return
-\n - tremolo bar Release down
S - shift slide
s - legato slide
/ -  slide into from below or out of upwards
\ -  slide into from above or out of downwards
~ - vibrato
W - wide vibrato
tr - trill
TP - tremolo picking
T - tapping
S - slap
P - pop
< - fade in
^ - brush up
v - brush down
Login or Register to remove this ad.