Ads

Ellinia (Maple Story) Guitar Tab

Submitted: Apr 26, 2009 by Krimson (Last updated: Feb 03, 2010)

5
Average: 5 (5 votes)
Download | Listen
Game: Maple Story
Composer(s): Unknown
Style: Transcription

AutoScroll: Slow | Medium | Fast
Song: Ellinia
Game: Maple Story
Tabber: Krimson
Composer: Whoever the composer was for Maple Story.
I haven't had any luck in finding any reference to the composer...
as tends to happen quite often with MMORPGs.

This is the basic melody that plays in Ellinia.  There are parts
where the tune gets more intricate and a few extra notes are thrown in.

e||-1------------------------------1----------------------------------
B||---1-3-------------1-3-4-1-3-4-----3-4---1---------1-3---1-4-3-----
G||-------3-2-3-0-2-3-------------2-------3---3-3-2-3-----3-------2---
D||-------------------------------------------------------------------
A||-------------------------------------------------------------------
E||-------------------------------------------------------------------

e||-------------------------------------------------------------------
B||----------------------1-3-4-1----------------3---------------------
G||-0-2-3---0-2-3--0-2-3----------0-2-3---0-2-3-----------------------
D||-------3-----------------------------3-----------------------------
A||-------------------------------------------------------------------
E||-------------------------------------------------------------------

Note: If you really want to play it right, play each note twice with
a small delay between them.  This is just the basic melody
Login or Register to remove this ad.

4 comments on Ellinia

Nice!

I actually really enjoy this tab, its a nice little tune =)

Very good

5

Very nice tab, remember playing this a very long time ago... though i would say by the end, instead of

e||-----------------------
B||----------------------
G||-0-2-3---0-2-3-0-2-3-
D||-------3---------------
A||-----------------------
E||-----------------------

this

e||-----------------------
B||----------------------
G||-0-2-3---0-2-3-3-0-2-3-
D||-------3---------------
A||-----------------------
E||-----------------------

don't you think?, it repeats in the original was well.
Other than that great tab :D

All good but at the end.....

5

i think at the end u should hit the G string at the 3th fride one last time, and then it will sounds exellent :D Gj.

amazing

5

i feel like i was still playing ms