Ads

Flashback Song (Majin and the Forsaken Kingdom) Guitar Tab

Submitted: May 17, 2011 by Pandacoustic

0
Download | Listen
Game: Majin and the Forsaken Kingdom
Composer(s): Toshihiko Sahashi
Style: Arrangement, Fingerstyle, Natural harmonics

AutoScroll: Slow | Medium | Fast
Game: Majin and the Forsaken Kingdom
Composed by: Toshihiko Sahashi 
Arranged by Pandacoustic



E|---------------|----------------------|------0----2----|-0-------------|-7-------------|
B|-------0---2---|-3------0-----0---2---|-3--------------|---------0-----|-------0---2---|
G|-4-------------|----------------------|----------------|---------------|---------------|
D|---------------|----------------------|----------------|-----2---------|---------------|
A|---------------|-----2----------------|----------------|---------------|---------------|
E|---------------|----------------------|----------------|---------------|---------------|


E|----------------------|------0----2----|-4-------------|-------0---2---|-3------------0---2---|
B|-3-------0----0---2---|-3--------------|---------5-----|---------------|---------0------------|
G|----------------------|----------------|---------------|---------------|-----0----------------|
D|----------------------|----------------|-----2---------|---------------|-2--------------------|
A|-----2----------------|----------------|---------------|---------------|----------------------|
E|----------------------|----------------|---------------|---------------|----------------------|

				    NH
E|-3----5----7----|-5-------------|<12>---5---7---|-8-----------7--------|----------------|
B|----------------|---------5-----|---------------|------------------10--|-8----7----5----|
G|----------------|-----6---------|---------------|---------9------------|----------------|
D|----------------|---------------|---------------|-----10---------------|----------------|
A|----------------|---------------|---------------|----------------------|----------------|
E|----------------|---------------|---------------|----------------------|----------------|


E|---------------|---------------|----------------------|------0----2----|-0-------------|
B|-7-------------|-------0---2---|-3-------0----0---2---|-3--------------|---------0-----|
G|---------7-----|---------------|----------------------|----------------|---------------|
D|-----0---------|---------------|----------------------|----------------|-----2---------|
A|---------------|---------------|-----2----------------|----------------|---------------|
E|---------------|---------------|----------------------|----------------|---------------|


E|-7-------------|----------------------|------0----2----|-4-------------|-------0---2---|
B|-------0---2---|-3-------0----0---2---|-3--------------|---------5-----|---------------|
G|---------------|----------------------|----------------|-----4---------|---------------|
D|---------------|----------------------|----------------|---------------|---------------|
A|---------------|-----2----------------|----------------|---------------|---------------|
E|---------------|----------------------|----------------|---------------|---------------|

							   NH
E|-3------------0---2---|-3----5----7----|-5-------------|<12>---5---7---|-8-----------7--------|
B|---------5------------|----------------|---------5-----|---------------|------------------10--|
G|-----4----------------|----------------|-----6---------|---------------|---------9------------|
D|----------------------|----------------|---------------|---------------|-----10---------------|
A|----------------------|----------------|---------------|---------------|----------------------|
E|----------------------|----------------|---------------|---------------|----------------------|


E|----------------|-2-------------0---|------------|-0---3---3---0---2---5---|-3---2---0----3---5---|
B|-8----7----5----|---------0---------|-4----0-----|-0---------------3-------|-0--------------------|
G|----------------|-------------------|------------|-------------------------|----------------------|
D|----------------|-------------------|------------|-2---------------0-------|-2--------------------|
A|----------------|-----2-------------|------------|-------------------------|----------------------|
E|----------------|-------------------|------------|-------------------------|----------------------|


E|-7----3----7----|-5--------------|-0---3---3---0---2---5---|-3---2---0----3---5---|
B|-0--------------|-7----7---------|-0---------------3-------|-0--------------------|
G|-0--------------|-----------7----|-------------------------|----------------------|
D|----------------|-0--------------|-2---------------0-------|-2--------------------|
A|----------------|----------------|-------------------------|----------------------|
E|----------------|----------------|-------------------------|----------------------|


E|-7----3----7----|-5------|-0---3---3---0---2---5---|-3---2---0----3---5---|-7----3----7----|
B|-0--------------|--------|-0---------------3-------|-0--------------------|-0--------------|
G|-0--------------|--------|-------------------------|----------------------|-0--------------|
D|----------------|--------|-2---------------0-------|-2--------------------|----------------|
A|----------------|--------|-------------------------|----------------------|----------------|
E|----------------|--------|-------------------------|----------------------|----------------|


E|-5--------------|-0---3---3---0---2---5---|-3---2---0----3---5---|-7----3----7----|
B|-7----7---------|-0---------------3-------|-0--------------------|-0--------------|
G|-----------7----|-------------------------|----------------------|-0--------------|
D|-0--------------|-2---------------0-------|-2--------------------|----------------|
A|----------------|-------------------------|----------------------|----------------|
E|----------------|-------------------------|----------------------|----------------|

								      NH
E|-5------|-0-----3----7---|-10----12---|-9-----7--------|-7------|--<12>------|
B|--------|-0--------------|------------|------------10--|--------|--<12>------|
G|--------|----------------|------------|-9--------------|--------|--<12>------|
D|--------|----------------|------------|----------------|--------|------------|
A|--------|----------------|------------|----------------|--------|------------|
E|--------|----------------|------------|----------------|--------|--<12>------|


Login or Register to remove this ad.