Ads

Caught Portrait Ghost (Luigi's Mansion) Guitar Tab

Submitted: Sep 19, 2013 by

5
Average: 5 (2 votes)
Download | Listen
Game: Luigi's Mansion
Composer(s): Kazumi Totaka, Shinobu Tanaka
Style: Transcription
Series: Mario

AutoScroll: Slow | Medium | Fast
e-------------------
B-------------------
G-------------------
D---2----1----2--1--
A-0----0----0--0----
E-------------------

e---------------------------------------------------------
B---------------------------------------------------------
G---------------------------------------------------------
D-----------------------2-1---2---------------------------
A-------0--0---2-3-0-3------------------------------------
E--0-3----3-----------------------------------------------
Login or Register to remove this ad.