Ads

Peace of Mind (Lufia 2) Guitar Tab

Submitted: Jul 11, 2020 by Traktorgott (Last updated: Aug 01, 2020)

0
Download | No audio :(
Game: Lufia 2
Composer(s): Yasunori Shiono
Style: Natural harmonics

Click here for a video example.

AutoScroll: Slow | Medium | Fast
Peace of Mind to all of you out there.

E||-----------------------------------------------------------------|
B||-----------6-----------------------------------------------------|
G||---7-----5-----5-8---7-5-7-----5-----7-5-------------------5-----|
D||-------8-------------------------8---------5-7-8---7h8-7-8-------|
A||-----------------------------------------------------------------|
E||-----------------------------------------------------------------|

E||---------------------------------------------------------------------------------------------|
B||-----------6---------------------------------------------------------------------------------|
G||---7-----5-----5-8---7-5-7-----5-----7-5-------------------------(8)-(7)-(5)-(7)---(7)-(5)---|
D||-------8-------------------------8---------5-7-8---7h8-7-5-7-8-------------------------------|
A||---------------------------------------------------------------------------------------------|
E||---------------------------------------------------------------------------------------------|

E||-----------------6-5---------------------------------------------|
B||-------6-------6-----6-------------------------------------------|
G||---7-8-----7-8---------------5-7-7---7-7-5---5-7-----------------|
D||---------------------------8---------------8---------------------|
A||-----------------------------------------------------------------|
E||-----------------------------------------------------------------|

E||-----------------6-5---------------------------------------------|
B||-------6-------6-----6-------------------------6-----------------|
G||---7-8-----7-8---------------5-7-7---7-7-5---5-------------------|
D||---------------------------8---------------8---------------------|
A||-----------------------------------------------------------------|
E||-----------------------------------------------------------------|

E||---6-5-6---8-6-5-6-----6-8-10-11-10-6-6-----8-8---6---6-5-3-5----|
B||---------5--------------------------------8-----8----------------|
G||-----------------------------------------------------------------|
D||-----------------------------------------------------------------|
A||-----------------------------------------------------------------|
E||-----------------------------------------------------------------|

E||---6-5-6---8-6-5-6-----6-8-10-11-10-6-6-----8-8---6---6-5-3-5-----(11)-(10)-(8)-(10)---|
B||---------5--------------------------------8-----8--------------------------------------|
G||---------------------------------------------------------------------------------------|
D||---------------------------------------------------------------------------------------|
A||---------------------------------------------------------------------------------------|
E||---------------------------------------------------------------------------------------|
Login or Register to remove this ad.