A Sign of Hope (Lost Odyssey) Guitar Tab

Submitted: Mar 12, 2011 by diralark

5
Average: 5 (5 votes)
Download | Listen
Game: Lost Odyssey
Composer(s): Nobuo Uematsu
Style: Arrangement, Fingerstyle

AutoScroll: Slow | Medium | Fast
                          A Sign of Hope    from Lost Odyssey

Music by Nobuo Uematsu >> Piano Score by Xald Balghostriped >> Guitar tab by Diralark

Solo Guitar, tempo 94, let ring

Ost : http://www.youtube.com/watch?v=d8xtkry1wK8

     E  E  E  E  E  E     H.               E   E   E   E   E   E      H.            
E||--------------------|---------------|--------------------------|----------------|
B||--------0--1--0-----|---------------|----------12--13--12------|----------------|
G||-----0-----------0--|---------------|------12--------------12--|----------------|
D||--------------------|---------------|--10----------------------|--10------------|
A||--3-----------------|--3------------|--------------------------|----------------|
E||--------------------|---------------|--------------------------|----------------|


  E  E  E  E  E  E     E  E  E  E  E  E     E  E  E  E  E  E     E  E  E  E  E  E   
--------------------|--------------------|--------------------|--------------------|
--------0--1--0-----|--------0--1--0-----|--------0--1--0-----|--------0--1--0-----|
-----0-----------0--|-----0-----------0--|-----0-----------0--|-----0-----------0--|
--------------2-----|--------------0-----|--3-----3-----------|--------------------|
--3-----------------|--3-----------------|--------------------|--3-----------------|
--------------------|--------------------|--------------------|--------------------|


  E  E  E  E  E  E     E  E  E  E  E  E     E  E  E  E  E  E     E  E  E  E  E  E   
--------------------|--------------------|--------------------|--------------------|
--------0--3--0-----|--------0--1--0-----|--------0--1--0-----|--------0--1--0-----|
-----0-----------0--|-----2-----------2--|-----2-----------2--|-----0-----------0--|
--0-----------------|--0-----------------|--3-----3-----------|--------------------|
--------------------|--------------------|--------------------|--3-----------------|
--------------------|--------------------|--------------------|--------------------|


  E  E  E  E  E  E     E  E  E  E  E  E     E  E  E  E  E  E     E  E  E  E  E  E   
--------------------|--------------------|--------------------|--------------------|
--------0--1--0-----|--------0--1--0-----|--------0--1--0-----|--------0--1--0-----|
-----0-----------0--|-----0-----------0--|-----0-----------0--|-----0-----------0--|
--2-----------2-----|--2-----------------|--3-----------------|--------------------|
--3-----------------|--3-----------------|--------------------|--3-----------------|
--------------------|--------------------|--------------------|--------------------|


  E  E  E  E  E  E     E  E  E  E  E  E     E  E  E  E  E  E     H.            
--------------------|--------------------|--------------------|---------------|
--------0--3--0-----|-----3--0-----------|--------0--1--0-----|---------------|
--0--0--0--------0--|-----------0--------|-----0-----------0--|---------------|
--0-----------------|--3-----------0-----|--------------------|---------------|
--------------------|-----------------2--|--3-----------------|--3------------|
--3-----------------|--------------------|--------------------|---------------|


    ^                                         ^                                       
    E  E  E  E  E  E     E  E  E  E  E  E     E  E  E  E  E  E     E  E  E  E  E  E   
|---0-----0-----0-----|--0-----------------|--1-----1-----1-----|--0-----------------|
|---------0--1--0-----|--------0--1--3-----|--------0--1--0-----|--------0--1--0-----|
|*-----0-----------0--|-----0-----------0--|-----0-----------0--|-----0-----------0--|
|*--2-----2-----2-----|--2-----------0-----|--3-----3-----3-----|--2-----------------|
|---3-----------------|--3-----------------|--3-----------------|--3-----------------|
|---------------------|--------------------|--------------------|--------------------|


                    1.____________
  ^                                         ^                                         
  E  E  E  E  E  E     E  E  E  E  E  E     E  E  E  E  E  E     E  E  E  E  E  E     
--3-----3-----3-----|--1-----------------|--1-----1-----1-----|--0------------------||
--------0--3--0-----|--------0--1--0-----|--------0--1--0-----|--------0--1--0--3---||
--0--0--0-----0--0--|-----2-----------2--|-----2-----------2--|-----0-----0-----0--*||
--------------------|--3-----------------|--3-----3-----------|--2-----------------*||
--3-----------------|--3-----------------|--------------------|--3------------------||
--------------------|--------------------|--------------------|---------------------||


2.____________
                       ^                                                ^                    ^      
  E  E  E  E  E  E     E  E  E  E  E  E     H.              E  E  E  E  E  E     E  E  E  E  E  E   
--1-----------------|--------------------|---------------|--------------------|--------------------|
-----3--0-----0-----|--1-----0--1--0-----|---------------|--------1-----1-----|--1-----1-----0-----|
-----------0--------|-----0-----------0--|---------------|--2--2--2--2--2--2--|--2--2-----2--0--2--|
--3-----------0-----|--------------------|---------------|--3-----3-----3-----|--3-----------------|
--3--------------2--|--3-----------------|--3------------|--------------------|--------------------|
--------------------|--------------------|---------------|--------------1-----|--------------1-----|


                                            ^                             ^      
  E  E  E  E  E  E     E  E  E  E  E  E     E  E  E  E  E  E     H        E  E   
--------------------|--------------------|--------------------|-----------------|
--------1-----1-----|--------1-----1-----|--------------------|-----------------|
--0--0--0--0--0--0--|-----0-----0-----0--|-----------------5--|-----------0-----|
--2-----2-----2-----|--2-----------------|--3--3-----3--3-----|--7--------------|
--3-----------3--L--|--3-----------------|--5-----5-----------|--8--------7--8--|
--------------------|--------------------|--------------------|-----------------|


                                             V                    --                 
                                    ^                                                
  E  E   E  E  E  E     E  E  E  E  E  E     E  E  E  E  E  E     E  E  E  E  E  E   
---------------------|--------------------|--------5-----5-----|--8--------------5--|
---------------------|--------------------|--------6-----6-----|--------------------|
-----0------0-----0--|--0--------------0--|--------5-----5-----|--------5-----------|
--------10-----0-----|-----0-----7--8-----|-----7--7--7-----7--|-----7-----7--9--7--|
--7------7-----8-----|--7-----8-----8-----|--8-----------------|--8-----------------|
--8------8-----------|--6-----------6-----|--------------------|--------------------|


  E  E  E  E  E  E     H        Q       E  E  E  E  E  E     E  E  E  E  E  E   
--3-----3-----1--3--|--0-------------|--1-----1--1--5-----|--5-----------------|
--------------3-----|--1-------------|--3-----1--------6--|--------------0--1--|
-----0-----0--------|--2-------------|-----2--------7-----|-----------------2--|
--------------------|--2--------2----|--3-----------------|--7-----------3-----|
--3-----1-----0-----|----------------|--------------------|-----8--0--3--------|
--------------------|----------------|--------------------|--------------------|


                       ^                                                         
  E  E  E  E  E  E     H.               E   E   E   E   E   E      H.            
--------------------|---------------|--------------------------|----------------|
--1-----0--1--0-----|--1------------|----------12--13--12------|----------------|
-----0-----------0--|--0------------|------12--------------12--|----------------|
--3-----------------|---------------|--10----------------------|--10------------|
--3--------------L--|--3------------|--------------------------|----------------|
--------------------|---------------|--------------------------|----------------|


   VIII                        --                         --                      
   ^                                                      ^                       
   E    E   E   E   E   E      E   E   E   E   E   E      E   E   E   E   E   E   
--12-------12------12------|--12--------------10------|--13------13------13------|
---------------------------|--------------------------|--------------------------|
---------------------------|--------------------------|--10------10------10------|
-----------10------10------|----------10------10------|----------10------10------|
-------10------10------10--|------10------10------10--|------10------10------10--|
---8-----------------------|---8----------------------|---8----------------------|


   --                                                    VIII    -]           
   E   E   E   E   E   E      E   E   E   E   E   E      E    E  E  E  E  E   
--12----------------------|--15------15------15------|--13-------------------|
--------------------------|--------------------------|-----------0-----0-----|
--------------------------|--------------------------|--------------0-----0--|
----------10------10------|--------------------------|-------12--------0-----|
------10------10------10--|----------14------14------|---8-------------------|
---8----------------------|--15--15------15------15--|---8-------------------|


   VIII                      --                    Da Capo         
   ^                         ^                              
   E    E  E   E  E   E      H.              H.             
---8---------------------|---8------------|--L------------||
-------------------------|---8------------|--L------------||
--10---------------------|---9------------|--L------------||
--10-------9--10--9------|--10------------|--L------------||
-------10------------10--|----------------|---------------||
---8---------------------|---8------------|--L------------||




Duration Legend
---------------
W - whole
H - half
Q - quarter
E - 8th
S - 16th
T - 32nd
X - 64th
. - note dotted
|-n-|  - n-tuplets


Tablature Legend
----------------
L - tied note
x - dead note
g - grace note
(n) - ghost note
> - accentuded note
NH - natural harmonic
AH - artificial harmonic
TH - tapped harmonic
SH - semi harmonic
PH - pitch harmonic
h - hammer on
p - pull off
b - bend
br - bendRelease
pb - preBend
pbr - preBendRelease
brb - bendReleaseBend
\n/ - tremolo bar dip
\n - tremolo bar dive
-/n - tremolo bar Release up
/n\ - tremolo bar inverted dip
/n - tremolo bar return
-\n - tremolo bar Release down
S - shift slide
s - legato slide
/ -  slide into from below or out of upwards
\ -  slide into from above or out of downwards
~ - vibrato
W - wide vibrato
tr - trill
TP - tremolo picking
T - tapping
S - slap
P - pop
< - fade in
^ - brush up
v - brush down
Login or Register to remove this ad.

5 comments on A Sign of Hope

This is awesome :D

This is awesome :D

thank you :)

thank you :)

mmm is this tuning 1/2 step

mmm is this tuning 1/2 step down?

yep true

yep true

ok! there was something

ok! there was something strange in the key so i ask... awesome tab =D