An Immortal Life (Lost Odyssey) Guitar Tab

Submitted: Jan 10, 2012 by Max_depa

5
Average: 5 (2 votes)
Download | Listen
Game: Lost Odyssey
Composer(s): Nobuo Uematsu
Style: Arrangement, Fingerstyle, Tapped harmonics

AutoScroll: Slow | Medium | Fast
An Immortal Life - Lost Odyssey
Arranged by: Max_depa
Composed by: Nobuo Uematsu


     ^                                                             ^         
                               |--3--|                                       
     H        H           Q    S  S  Q    E  E  E  E     Q    Q    H         
E||--7-----------------|--2----0h-2p-0----7--5--3--5--|--7------------------|
B||--8-----------------|------------------------5--7--|--8----7-------------|
G||--9-----------------|--0---------------------------|------------7--------|
D||--9--------2--------|--2---------------9--7--5--7--|--9---------9--------|
A||-----------2--------|------------------------------|------------9--------|
E||-----------0--------|------------------------------|------------7--------|


                                      ^                                        
                                                       |--3--|                 
    H        Q    Q       E  E  E  E  H           Q    S  S  Q    E  E  E  E   
--<>2--------3----5----|--7--------------------|------------------7--5-----5--|
------------------7----|--8-----8-----1--------|--3----1h-3p-1----------8-----|
-------------0---------|--7--7-----7--0--------|--0---------------------------|
-----------------------|--------------2--------|------------------5-----------|
-----------------------|--------------3--------|------------------------------|
-----------------------|--------------3--------|------------------------------|


  Q     Q     Q     Q        H         E  E  E  E     E  E  E  E  E  E  E  E   
--7----10----14----15----|--12--------14-----------|--7-----------------------|
--------7----------------|----------------------7--|--------5-----------5-----|
--5-----7----------------|-------------------7-----|-----5-----5-----5-----5--|
-------------------------|----------------7--------|--5-----------5-----------|
-------------------------|-------------------------|--------------------------|
-------------------------|-------------------------|--------------------------|


  E  E  E  E  E  E  E  E     E  E  E  E  E  E  E  E   
--------------7--5-----5--|--7-----------------------|
--------5-----------8-----|--------7-----------7-----|
-----5-----5-----5-----5--|-----7-----7-----7-----7--|
--5-----------5-----------|--7-----------7-----------|
--------------------------|--------------------------|
--------------------------|--------------------------|


  E  E  E  E  E  E   E  E      E   E   E   E   E   E   E   E   
--------------7-----10-----|--12------------------------------|
--------7------------7-----|----------13--------------13------|
-----7-----7-----7------7--|------14------14------14------14--|
--7-----------7------------|--14--------------14--------------|
---------------------------|----------------------------------|
---------------------------|----------------------------------|


   E   E   E   E   E   E   Q        E   E   E   E   E   E   E   E   
------------------14--12--10----|--12------------------------------|
----------13--------------------|----------10--------------10------|
------14------14----------------|------11------11------11------11--|
--14----------------------------|--12--------------12--------------|
--------------------------------|----------------------------------|
--------------------------------|----------------------------------|


   E   E   E   E   H           H        H          
----------------------------|--------------------||
----------10----------------|--------------------||
------11------11------------|--------------------||
--12--------------12--------|--L-----------------||
----------------------------|--------------------||
----------------------------|--------------------||




Duration Legend
---------------
W - whole
H - half
Q - quarter
E - 8th
S - 16th
T - 32nd
X - 64th
. - note dotted
|-n-|  - n-tuplets


Tablature Legend
----------------
L - tied note
x - dead note
g - grace note
(n) - ghost note
> - accentuded note
NH - natural harmonic
AH - artificial harmonic
TH - tapped harmonic
SH - semi harmonic
PH - pitch harmonic
h - hammer on
p - pull off
b - bend
br - bendRelease
pb - preBend
pbr - preBendRelease
brb - bendReleaseBend
\n/ - tremolo bar dip
\n - tremolo bar dive
-/n - tremolo bar Release up
/n\ - tremolo bar inverted dip
/n - tremolo bar return
-\n - tremolo bar Release down
S - shift slide
s - legato slide
/ -  slide into from below or out of upwards
\ -  slide into from above or out of downwards
~ - vibrato
W - wide vibrato
tr - trill
TP - tremolo picking
T - tapping
S - slap
P - pop
< - fade in
^ - brush up
v - brush down
Login or Register to remove this ad.