Ads

Get it Together (LittleBigPlanet) Guitar Tab

Submitted: Apr 16, 2009 by rustysteiner (Last updated: Apr 19, 2009)

4.142855
Average: 4.1 (7 votes)
Download | Listen
Game: LittleBigPlanet
Composer(s): The Go! Team
Style: Transcription

AutoScroll: Slow | Medium | Fast
0:09 (before 0:09, just rapidly strum a G major chord)
              x                  x   x
e----5--7--8--7-7--------5--7--8-7-7-5-5
B-8------------------8------------------
G---------------------------------------
D---------------------------------------
A---------------------------------------
E---------------------------------------


0:29
     x   x        x   x
e-7--5-5-------7--5-5-------------------
B--------8-8~---------8-8---------------
G---------------------------------------
D---------------------------------------
A---------------------------------------
E---------------------------------------


0:39

e------5--7-7--5-------7-7--5-----------
B--8----------8-8-5-8------8-8-5-8------
G---------------------------------------
D---------------------------------------
A---------------------------------------
E---------------------------------------

e--5-5--7-5---------------------5-5-7-5-
B----------8--5-8--8--8-7-5---8--------8
G---------------------------7-----------
D---------------------------------------
A---------------------------------------
E---------------------------------------

e---------------------------------------
B-5-8----------------------------------- 
G---------------------------------------
D---------------------------------------
A---------------------------------------
E---------------------------------------


repeat whole thing three times. 
Login or Register to remove this ad.

3 comments on Get it Together

not bad but...

3

Either my guitar is out of tune or its not quite right that third part :P
even though a god tab^^

PS(Cudos for the first to make one;))

Awesome @[email protected]

5

Love this game, Love this song, You rule, Saved it to my favorite pages ;D

I love LBP

5

This is definately going to be one that im going to practice..