Login or Register to remove this ad.

Ending (Little Nemo: The Dream Master) Bass/Guitar Tab

Submitted: Apr 06, 2011 by hslesperance (Last updated: Aug 10, 2012)

0
Download | Listen
Game: Little Nemo: The Dream Master
Composer(s): Junko Tamiya
Style: 2 or more instruments, Transcription

AutoScroll: Slow | Medium | Fast
Ending
Little Nemo: The Dream Master
Composed by Junko Tamiya
Tabbed by hslesperance
4/6/11

Standard Tuning




Guitar 1

           |--3---|       |--3---|      |--3---|
   a  Q   +E   E  E  Q   +E   E  E   a  E  E  +H   H
|----------------------------------|--------------------|
|----------------------------------|--------------------|
|-12h13--(13)-10-11-13--(13)-10-11-|-9h10---------------|
|----------------------------------|------11-(11)-------|
|----------------------------------|--------------------|
|----------------------------------|--------------------|

           |--3---|       |--3---|      |--3---|
   a  Q   +E   E  E  Q   +E   E  E   a  E  E  +H   H
|----------------------------------|--------------------|
|----------------------------------|--------------------|
|-12h13--(13)-10-11-13--(13)-10-11-|-9h10---------------|
|----------------------------------|------11-(11)-------|
|----------------------------------|--------------------|
|----------------------------------|--------------------|

                 |---3---|    |-3--|  |--3--| |--3---|
   H     a  Q   +E   E   E    Q  Q Q  S  S  E E +E   Q
|--------------------------|-------9-11h12p11-9-(9)----|
|--------------------------|----11------------------10-|
|-------12h13--(13)-11--10-|-11------------------------|
|-10-----------------------|---------------------------|
|--------------------------|---------------------------|
|--------------------------|---------------------------|

  |--3---| |---3---|    |---3----|  |--3--|
  Q +Q   Q Q +Q    Q    Q  +Q    Q  Q +Q  Q
|-------11-9-(9)-----|-----------9--8-(8)-9--|
|-9-(9)------------9-|--7--(7)---------------|
|--------------------|-----------------------|
|--------------------|-----------------------|
|--------------------|-----------------------|
|--------------------|-----------------------|

          |--3--|            |-3--|           |--3---|     |3-|  |3-|
  Q      +E  E  E  Q        +E  E E     Q    +E   E  E  a  Q  Q  E  E
|-9------(9)-8--9---------------8-9-|------------------13h14-13-------|
|------------------9--------(9)-----|------------13-14----------14-11-|
|-----------------------------------|--11---(11)----------------------|
|-----------------------------------|---------------------------------|
|-----------------------------------|---------------------------------|
|-----------------------------------|---------------------------------|

        |--3---|            |---3----|           |--3---|     |3-|  |3-|
   Q   +E   E  E  Q        +E    E   E     Q    +E   E  E  a  Q  Q  E  E
|--------------------------------------|------------------15h16-14-13-----|
|----------13-14----------------13--14-|------------13-14-------------16--|
|-13--(13)-------13-------(13)---------|--11---(11)-----------------------|
|--------------------------------------|----------------------------------|
|--------------------------------------|----------------------------------|
|--------------------------------------|----------------------------------|

   |--3---|           |--3---|       |--3---|         |--3---|  |--3--|  |3-|
   E   E  E  +H      +E   E  E    a  E   E  E  +Q    +E   S  S  E  S  S  E  E
|------------------------------|-------------------------16h18p16-------------|
|-16--13-14-(14)----(14)-13-14-|-15h16--13-14-(14)--(14)----------16h18p16----|
|------------------------------|-------------------------------------------18-|
|------------------------------|----------------------------------------------|
|------------------------------|----------------------------------------------|
|------------------------------|----------------------------------------------|

   |--3--|  |----3-----|  |--3--|
   E  E  E  Q.   a  E  E  E  E  Q       H                    H
|------------------------------------|----------------------------|
|------------------------------------|----------------------------|
|------------------------------------|----------------------------|
|-16-15-13------13h15-13-------13----|-15-------------------------|
|----------16------------16-16-------|----------------------------|
|------------------------------------|----------------------------|

           |--3---|       |--3---|      |--3---|
   a  Q   +E   E  E  Q   +E   E  E   a  E  E  +H   H
|----------------------------------|--------------------|
|----------------------------------|--------------------|
|-12h13--(13)-10-11-13--(13)-10-11-|-9h10---------------|
|----------------------------------|------11-(11)-------|
|----------------------------------|--------------------|
|----------------------------------|--------------------|

           |--3---|       |--3---|      |--3---|
   a  Q   +E   E  E  Q   +E   E  E   a  E  E  +H   H
|----------------------------------|--------------------|
|----------------------------------|--------------------|
|-12h13--(13)-10-11-13--(13)-10-11-|-9h10---------------|
|----------------------------------|------11-(11)-------|
|----------------------------------|--------------------|
|----------------------------------|--------------------|


     Q   Q   Q   Q     a  E   S  S  +H.
||------------------|----------------------------------|
||o-----------------|-17h18--16------------------------|
||--------------18--|-----------18-(18)----------------|
||------15--18------|----------------------------------|
||o-16--------------|----------------------------------|
||------------------|----------------------------------|


   a   E   S  S  +H              a  E  S  S    +S   S  S  S  +H.
|-------------------------------15h16-14-13-|-(13)------------------|
|-17h=18--16--------------------------------|---------14------------|
|------------18-(18)------------------------|------13----13-(13)----|
|-------------------------------------------|-----------------------|
|-------------------------------------------|-----------------------|
|-------------------------------------------|-----------------------|


   Q   Q   Q   Q     a  E   S  S  +H.                   a   E   S  H                   E  S  S  S
|-----------------|----------------------------------|---------------------------------------------|
|-----------------|-17h18--16------------------------|-17h=18--16----------------------------------|
|-------------18--|-----------18-(18)----------------|------------18------------------18-16-14-16--|
|-----15--18------|----------------------------------|---------------------------------------------|
|-16--------------|----------------------------------|---------------------------------------------|
|-----------------|----------------------------------|---------------------------------------------|


   H                    Q.              E       H                   Q.            E
|--------------------------------------------|-----------------------------------------|
|-14-----------------------------------------|-----------------------------------------|
|----------------------13--------------15----|-----------------------------------------|
|--------------------------------------------|-15--------------------------------13----|
|--------------------------------------------|---------------------16------------------|
|--------------------------------------------|-----------------------------------------|


   H                    Q.              E       H                   Q.            E       3x
|--------------------------------------------|--------------------------------------------||
|-14-----------------------------------------|-------------------------------------------o||
|----------------------13--------------15----|--------------------------------------------||
|--------------------------------------------|-15--------------------------------13-------||
|--------------------------------------------|---------------------16--------------------o||
|--------------------------------------------|--------------------------------------------||




Guitar 2

      Q    Q         Q    Q             H          H
|----------------------------------|--------------------|
|----------------------------------|--------------------|
|-----8----6-----------------------|--------------------|
|--------------------9----9--------|----8---------------|
|----------------------------------|---------------9----|
|----------------------------------|--------------------|

      Q    Q         Q    Q             H          H
|----------------------------------|--------------------|
|----------------------------------|--------------------|
|-----8----6-----------------------|--------------------|
|--------------------9----9--------|----8---------------|
|----------------------------------|--------------------|
|----------------------------------|--------------------|

                 |---3---|    |-3--|  |------3-------|
   H        Q    E  +E   E    Q  Q Q  Q       Q      Q
|--------------------------|----------5----------------|
|--------------------------|-------7----------7--------|
|-----------8----7--(7)----|-----6-------------------6-|
|--6---------------------8-|--8------------------------|
|--------------------------|---------------------------|
|--------------------------|---------------------------|

                 |3|           |3|  |--3--|
  H        Q     E Q   +Q      E Q  Q  Q  Q
|--------------------|-----------------------|
|-6--------9---------|---------7-7-10--9--7--|
|----------------6-6-|-(6)-------------------|
|--------------------|-----------------------|
|--------------------|-----------------------|
|--------------------|-----------------------|
                 *             *
  |-3--|     |--3--|  |--3---|                |--3---|     |--3--|
  E E  Q     E  E  E  E  E  +Q.        +Q     E   E  E     Q  Q  Q
|-----------------------------------|---------------------------------|
|-7---------------------------------|---------------------11----------|
|---8-10-----8-10-------------------|------------11-11-------13-11----|
|-----------------11-10-11-(11)-----|-(11)---11-----------------------|
|-----------------------------------|---------------------------------|
|-----------------------------------|---------------------------------|

                  |3-|  |---3----|
   H              E  E  Q       +Q        +Q     Q            H
|--------------------------------------|----------------------------------|
|--------------------------------------|---------------------10-----------|
|--------------------------------------|--------11------------------------|
|-13-------------13-10-11------(11)----|-(11)-----------------------------|
|--------------------------------------|----------------------------------|
|--------------------------------------|----------------------------------|

                                                                   |---3----|
   H.                 Q              H.                            E     E  E
|------------------------------|----------------------------------------------|
|------------------------------|----11----------------------------------13----|
|-10---------------------------|----------------------------------------------|
|------------------------------|----------------------------------------------|
|------------------------------|----------------------------------------------|
|------------------------------|----------------------------------------------|

                             |--3--|    |-----5-----|
   Q        Q       Q        E  E  E    T  T  T  T  T  Q.    H
|------------------------------------|----------------------------|
|------------------------------------|----------------------------|
|-15-------13------------------------|----------------------------|
|------------------------------------|----------------13----12----|
|---------------------------13-------|-------13h15h16-------------|
|------------------------------16-14-|-14h16----------------------|


      Q    Q         Q    Q             H          H
|----------------------------------|--------------------|
|----------------------------------|--------------------|
|-----8----6-----------------------|--------------------|
|--------------------9----9--------|----8---------------|
|----------------------------------|---------------9----|
|----------------------------------|--------------------|


      Q    Q         Q    Q             H          H
|----------------------------------|--------------------|
|----------------------------------|--------------------|
|-----8----6-----------------------|--------------------|
|--------------------9----9--------|----8---------------|
|----------------------------------|--------------------|
|----------------------------------|--------------------|


     Q   Q   Q   Q        Q.            S  S  +Q    Q
||------------------|----------------------------------|
||o-----------------|-------------------9-11-(11)------|
||--------------10--|----11------------------------11--|
||-----------9------|----------------------------------|
||o-----11----------|----------------------------------|
||---9--------------|----------------------------------|


      +Q.            S  S  +Q       E  E        S   S  S  S  +H.
|-------------------------------------------|-----------------------|
|--------------------9-10-(10)--------------|-------9---------------|
|----(11)--------------------------11-------|---------10------------|
|-------------------------------------------|------------11-(11)----|
|-------------------------------------------|-----------------------|
|-------------------------------------------|-----------------------|


   Q   Q   Q   Q        Q.            S  S  +Q    Q        +Q         +S   S S  E.  S  E  S  S  S
|-----------------|----------------------------------|---------------------------------------------|
|-----------------|-------------------9-11-(11)------|-----------------------9-10-----10-----------|
|-------------10--|----11------------------------11--|----(11)-------(11)-11-------11----13-11-13--|
|----------9------|----------------------------------|---------------------------------------------|
|-----11----------|----------------------------------|---------------------------------------------|
|--9--------------|----------------------------------|---------------------------------------------|


   S  S  S  E  S  S  S  S   S  S  E  S  S  S    S  S  S  E  S  S S  S   S  S E S  S  S
|--------------------------------------------|-----------------------------------------|
|--------------------------------------------|-----------------------------------------|
|-10-11-13-10-10--------------10-------------|-----------------------------------------|
|----------------13-11-11--13----11-11-10----|----10-11-----------------------------11-|
|-----------------------------------------13-|-13-------13-13-11-9--9--11-13-9-9-13----|
|--------------------------------------------|-----------------------------------------|


   S  S  S  E  S  S  S  S   S  S  E  S  S  S    S  S  S  E  S  S S  S   S  S E S  S  S    3x
|--------------------------------------------|--------------------------------------------||
|--------------------------------------------|-------------------------------------------o||
|-10-11-13-10-10--------------10-------------|--------------------------------------------||
|----------------13-11-11--13----11-11-10----|----10-11-----------------------------11----||
|-----------------------------------------13-|-13-------13-13-11-9--9--11-13-9-9-13------o||
|--------------------------------------------|--------------------------------------------||




Bass

  Q  E E Q  Q    Q  E E Q  Q    Q  E E Q  Q    Q  E E Q  Q
|-6----6----6--|--------------|-6----6----6--|--------------|
|--------6-----|--------6--6--|--------6-----|--------6-----|
|--------------|-9----9-------|--------------|-9----9----9--|
|--------------|--------------|--------------|--------------|

     |-3-| |-3-|      |-3-| |-3-|  |-3--|
  Q  E E E Q Q Q   Q  E E E Q.  E  S  S E
|----------------|----------------10-11---|
|--------6-8-8-8-|------------------------|
|-8----9---------|-6----6-8-9---9-------9-|
|----------------|------------------------|

  |-3-| |3| |-3-| |3-|    |-3-| |-3-| |-3-| |3|
  E Q E E E E E Q E  E    Q.  E E E E E E E E E
|----------------------|-------------------------|
|---6---6---8---8------|--------3-4-6---6-6-6----|
|----------------------|----------------------4--|
|---------4---6---9-10-|-11-----------4----------|

     |3|    |3|       |3-|  |-3--|
  Q  E Q Q  E Q    Q  E  Q  Q  Q Q
|---------------|------------------|
|---------------|------------------|
|--------8----8-|----------11-11-9-|
|------9--------|-11----11---------|

     |-3--|      |3|       |-3-|  |-3--|  |-3--|
  Q  E  E E +Q   E Q    Q  E E E  S  S E  Q  E E
|--------------------|-----------10-11---10-10----|
|------10-8-(8)----8-|----------------------------|
|-8------------------|-------8-9-------8-------8--|
|--------------------|-11-------------------------|

  |--3--| |--3--|   |--3--| |--3--|
  Q.  E Q Q.  E Q   Q.  E Q Q.  E Q   Q  Q  Q  Q    H    H
|-----------------|-----------------|-------------|-----------|
|-8-----8-7-----7-|-6-----6-5-----5-|----------6--|-8---------|
|-----------------|-----------------|-6--8--9-----|-----------|
|-----------------|-----------------|-------------|------6----|


  Q  E E Q  Q    Q  E E Q  Q    Q  E E Q  Q    Q  E E Q  Q
|-6----6----6--|--------------|-6----6----6--|--------------|
|--------6-----|--------6--6--|--------6-----|--------6-----|
|--------------|-9----9-------|--------------|-9----9----9--|
|--------------|--------------|--------------|--------------|


    E E E S E E S E E   E E E S E E S E E
||----6-6-----6-6-6---|---6-6-----6-6-6---|
||o-------------------|-------------------|
||o-4-----4-4-------4-|-4-----4-4-------4-|
||--------------------|-------------------|


  E E E S E E S E E   E E E S E E S E E
|---6-6-----6-6-6---|---6-6-----6-6-6----|
|-------------------|--------------------|
|-4-----4-4-------4-|-4-----4-4-------4--|
|-------------------|--------------------|


  E E E S E E S E E   E E E S E E S E E   E E E S S E Q.
|---6-6-----6-6-6---|---6-6-----6-6-6---|---8-8-------------|
|-------------------|-------------------|---------6---------|
|-4-----4-4-------4-|-4-----4-4-------4-|-6-----9-----------|
|-------------------|-------------------|-------------4-----|


  E E E. E E S E E   E E E. E E S S S E
|------------------|--------------------|
|--------3-3-3-3-3-|-4-4-4--6---6-6-6-6-|
|-4-4-4------------|--------------------|
|------------------|--------------------|


  E E E. E E S E E   E E E. E E S S S E  3x
|------------------|---------------------||
|--------3-3-3-3-3-|-4-4-4--6---6-6-6-6-o||
|-4-4-4------------|--------------------o||
|------------------|---------------------||

h - hammer on
p - pull off

W - whole
H - half
Q - quarter
E - 8th
S - 16th
T - 32nd
a - acciaccatura
+ - note tied to previous
. - note dotted

Irregular groupings are notated above the duration line

Notes with an asterisk (*) below them on the second guitar have a differnt tone
Login or Register to remove this ad.