Ads

Song for Friends (Little Busters!) Guitar Tab

Submitted: Nov 22, 2015 by MechaKrauser (Last updated: Nov 26, 2015)

5
Average: 5 (3 votes)
Download | Listen
Game: Little Busters!
Composer(s): Jun Maeda, PMMK, Manack, Shinji Orito, Magome Togoshi
Style: Arrangement, Fingerstyle

AutoScroll: Slow | Medium | Fast
Song for Friends
from Little Busters! Refrain
performed by Rita
Words and music by Jun Maeda, Arranged by MintJam
Tab by MechaKrauser

Standard tuning, capo on 2
Time varies between 7/8, 3/8, and 4/4, 130bpm

               [Intro]
                  ^                                            ^                  
     Q    Q       Q    Q    Q    E     E  E  E  E   E  Q       Q    Q    Q    E   
E||------------|--0-----------------|-----------------------|--------------------|
B||------------|--1----3----1-------|-----------3p--1--0----|--3----1------------|
G||------------|--2-----------------|--------0--------------|--0---------0-------|
D||-------3----|--3-----------------|-----0-----------------|--2-----------------|
A||------------|--------------------|-----------------------|--------------------|
E||------------|-----------------3--|--L--------------------|--0--------------1--|


                          ^                                            ^                  
  E  E  E  E   E  Q       Q    Q    Q    E     E  E  E  E   E  Q       Q    Q    Q    E   
-----------------------|--0-----------------|-----------------------|--3-----------------|
-----------3p--1--1----|--1----3----1-------|-----------3p--1--0----|--0----1---------1--|
--------0--------------|--2-----------------|--------0--------------|--0---------0-------|
-----------------------|--3-----------------|-----0-----------------|--------------------|
-----3-----------------|--------------------|-----------------------|-----------------3--|
--L--------------------|-----------------3--|--L--------------------|--0-----------------|


                       [Verse 1]
                          ^                                           ^                  
  E  E  E  E   E  Q       Q    Q    Q    E     E  E  E  E  E  Q       Q    Q    Q    E   
-----------------------|--0-----------------|----------------------|--0-----------------|
--L--------3p--1--1----|--1----3----1----1--|--L--------1----------|--0----3----1----3--|
--------0--------------|--2--------------0--|--L-----------0-------|--0-----------------|
-----------------------|--3-----------------|--------0--------0----|--------------------|
--L--3-----------------|--------------------|----------------------|--------------------|
-----------------------|-----------------3--|--L--3----------------|--0--------------1--|


                         ^                                           ^                  
  E  E  E  E  E  Q       Q    Q    Q    E     E  E  E  E  E  Q       Q    Q    Q    E   
----------------------|--0-----------------|----------------------|--------------------|
--L--------3----------|--1----3----1----1--|----------------------|------------0----1--|
--------------0-------|--2--------------0--|--0--------0----------|--0----0---------0--|
--------3-------------|--3-----------------|--------0-----0-------|--2-----------------|
-----3-----------3----|--------------------|-----------------2----|-----------------3--|
--L-------------------|-----------------3--|-----3----------------|--0-----------------|


                         ^                                           ^                  
  E  E  E  E  E  Q       Q    Q    Q    E     E  E  E  E  E  Q       Q    Q    Q    E   
----------------------|--0-----------------|----------------------|--0-----------------|
--L--------1-----3----|--1----3----1----1--|-----------------1----|--0----3----1----1--|
--L-----0-----0-------|--2--------------0--|--0--------0----------|--0-----------------|
----------------------|--3-----------------|--------0-----0-------|--------------------|
--L--3----------------|--------------------|----------------------|--------------------|
----------------------|-----------------3--|-----3----------------|--0--------------1--|


                           ^                                           ^                  
  E  E  E  E  E  E   E     Q    Q    Q    E     E  E  E  E  E  Q       Q    Q    Q    E   
------------------------|--0-----------------|----------------------|--------------------|
--3--------3-----1h--3--|--1----3----1----1--|----------------------|------------0----1--|
--------------0---------|--2--------------0--|--0--------0----------|--0----0---------0--|
--------3---------------|--3-----------------|--------0-----0-------|--2-----------------|
-----3------------------|--------------------|-----------------2----|-----------------3--|
------------------------|-----------------3--|-----3----------------|--0-----------------|


                         ^                                           ^                  
  E  E  E  E  E  Q       Q    Q    Q    E     E  E  E  E  E  Q       Q    Q    Q    E   
----------------------|--0-----------------|----------------------|--0-----------------|
--L--------3----------|--1----3----1----1--|-----------------1----|--0----3----1----3--|
--L-----0-----0-------|--2--------------0--|--0--------0----------|--0-----------------|
----------------------|--3-----------------|--------0-----0-------|--------------------|
--L--3-----------3----|--------------------|----------------------|--------------------|
----------------------|-----------------3--|-----3----------------|--0--------------1--|


                         ^                                           ^                  
  E  E  E  E  E  Q       Q    Q    Q    E     E  E  E  E  E  Q       Q    Q    Q    E   
----------------------|--0-----------------|----------------------|--------------------|
--L--------3-----3----|--1----3----1----1--|----------------------|------------0----1--|
--------------0-------|--2--------------0--|--0--------0----------|--0----0---------0--|
--------3-------------|--3-----------------|--------0-----0-------|--2-----------------|
-----3----------------|--------------------|-----------------2----|-----------------3--|
--L-------------------|-----------------3--|-----3----------------|--0-----------------|

                      [Pre-Chorus]
                       6/8
  E  E  E  Q    E  E     Q    Q    Q       Q    Q    Q       Q    Q    Q     
----------------------|------------0----|-----------------|------------3----|
--L-------------0--0--|--1----1---------|--3---------1----|--3----1---------|
--L-------------------|------------2----|-----------------|------------0----|
-----------2----------|-------2---------|------------3----|-------0---------|
--L--3--L-------------|--0--------------|-------3---------|-----------------|
----------------------|-----------------|--1--------------|--3--------------|


 4/4
  ^        ^           ^                                               
  H        H           Q    Q    E  E  E  E     Q    E  E  Q    E  E   
--0-----------------|------------------0-----|------------------------|
-----------3--------|--1------------1-----3--|-------------1----0--1--|
--0--------0--------|--0---------------------|----------2-------------|
--------------------|------------2-----------|--0----L-----0----------|
--3-----------------|-------3----------------|------------------------|
-----------3--------|--0---------------------|------------------------|


                                              [Chorus]
                         ^                                             
  Q    Q    Q    Q       H        Q    E   E     Q    Q    Q    E  E   
----------------------|--0--------L-----------|--3---------0----------|
-----------------1----|--1--------L----1h--3--|-----------------3--1--|
------------0---------|-----------------------|------------2----------|
-------2--------------|-----------------------|-------2---------------|
--3-------------------|-----------------------|--0--------------------|
----------------------|-----------------------|-----------------------|


  Q    Q    Q    E  E     E  E  Q    Q    E  E     Q    Q    Q    E   E   
-----------------------|---------------------0--|------------------------|
-----------------1--1--|--3--1------------3-----|-----------------1h--3--|
-------2---------------|-------------0----------|------------0-----------|
--0---------0----------|--------0---------------|-------2----------------|
-----------------------|------------------------|--3---------3-----------|
-----------------------|--3---------------------|------------------------|


  Q    Q    Q    E  E     Q    Q    Q    E  E     E  E  Q    Q    E  E   
--3---------0----------|-----------------------|------------------------|
-----------------3--1--|-----------------1--1--|--3--1------------0--1--|
------------2----------|-------2---------------|-------------0----------|
-------2---------------|--0---------0----------|--------0---------------|
--0--------------------|-----------------------|------------------------|
-----------------------|-----------------------|--3---------------------|


  Q    Q    Q    E   E     Q    Q    Q    E  E     Q    Q    Q    E  E   
------------------------|--3---------0----------|-----------------------|
-----------------1h--3--|-----------------3--1--|-----------------1--1--|
------------0-----------|------------2----------|-------2---------------|
-------2----------------|-------2---------------|--0---------0----------|
--3---------3-----------|--0--------------------|-----------------------|
------------------------|-----------------------|-----------------------|


             ^                       ^           ^                    
  E  E  Q    Q    E  E     Q    Q    H           Q    Q    Q    Q     
---------------------0--|---------------------|----------------------|
--3--1-------1----3-----|------------3--------|--1--------------1----|
-------------0----------|------------0--------|--2--------------2----|
--------0---------------|-------2-------------|------------3---------|
------------------------|--3------------------|-------3--------------|
--3---------------------|---------------------|--1-------------------|


                                                                    [Reprise]
																	 7/8
  ^                           ^                           ^            ^                  
  Q    Q    Q    Q       Q    Q    Q    Q       Q    Q    Q    Q       Q    Q    Q    E   
----------------------|----------------------|----------------------|--0-----------------|
-------0----1----1----|-------1----0----1----|------------0----1----|--1----3----1-------|
--0---------0---------|------------0---------|------------0---------|--2-----------------|
--0----0---------0----|-------2--------------|-------2--------------|--3-----------------|
----------------------|--3-------------------|--3-------------------|--------------------|
--3-------------------|----------------------|----------------------|-----------------3--|


                          ^                                            ^                  
  E  E  E  E   E  Q       Q    Q    Q    E     E  E  E  E   E  Q       Q    Q    Q    E   
-----------------------|--------------------|-----------------------|--0-----------------|
-----------3p--1--0----|--3----1------------|-----------3p--1--1----|--1----3----1-------|
--------0--------------|--0---------0-------|--------0--------------|--2-----------------|
-----0-----------------|--2-----------------|-----------------------|--3-----------------|
-----------------------|--------------------|-----3-----------------|--------------------|
--L--------------------|--0--------------1--|--L--------------------|-----------------3--|


                                                                    [Verse 2]
                          ^                                            ^                  
  E  E  E  E   E  Q       Q    Q    Q    E     E  E  E  E   E  Q       Q    Q    Q    E   
-----------------------|--3-----------------|-----------------------|--0-----------------|
-----------3p--1--0----|--0----1---------1--|--L--------3p--1--1----|--1----3----1----1--|
--------0--------------|--0---------0-------|--------0--------------|--2--------------0--|
-----0-----------------|--------------------|-----------------------|--3-----------------|
-----------------------|-----------------3--|--L--3-----------------|--------------------|
--L--------------------|--0-----------------|-----------------------|-----------------3--|


                         ^                                           ^                  
  E  E  E  E  E  Q       Q    Q    Q    E     E  E  E  E  E  Q       Q    Q    Q    E   
----------------------|--0-----------------|----------------------|--0-----------------|
--L--------1----------|--0----3----1----3--|--L--------3----------|--1----3----1----1--|
--L-----------0-------|--0-----------------|--------------0-------|--2--------------0--|
--------0--------0----|--------------------|--------3-------------|--3-----------------|
----------------------|--------------------|-----3-----------3----|--------------------|
--L--3----------------|--0--------------1--|--L-------------------|-----------------3--|


                         ^                                           ^                  
  E  E  E  E  E  Q       Q    Q    Q    E     E  E  E  E  E  Q       Q    Q    Q    E   
----------------------|--------------------|----------------------|--0-----------------|
----------------------|------------0----1--|--L--------1----------|--1----3----1----1--|
--0--------0----------|--0----0---------0--|--L-----0-----0-------|--2--------------0--|
--------0-----0-------|--2-----------------|----------------------|--3-----------------|
-----------------2----|-----------------3--|--L--3-----------3----|--------------------|
-----3----------------|--0-----------------|----------------------|-----------------3--|


                         ^                                           ^                  
  E  E  E  E  E  Q       Q    Q    Q    E     E  E  E  E  E  Q       Q    Q    Q    E   
----------------------|--0-----------------|----------------------|--0-----------------|
-----------------1----|--0----3----1----1--|--3--------3-----3----|--1----3----1----1--|
--0--------0----------|--0-----------------|--------------0-------|--2--------------0--|
--------0-----0-------|--------------------|--------3-------------|--3-----------------|
----------------------|--------------------|-----3----------------|--------------------|
-----3----------------|--0--------------1--|----------------------|-----------------3--|


                         ^                                           ^                  
  E  E  E  E  E  Q       Q    Q    Q    E     E  E  E  E  E  Q       Q    Q    Q    E   
----------------------|--------------------|----------------------|--0-----------------|
----------------------|------------0----1--|--L--------3----------|--1----3----1----1--|
--0--------0-----0----|--0----0---------0--|--L-----0-----0-------|--2--------------0--|
--------0-----0-------|--2-----------------|----------------------|--3-----------------|
----------------------|-----------------3--|--L--3-----------3----|--------------------|
-----3----------------|--0-----------------|----------------------|-----------------3--|


                         ^                                           ^                  
  E  E  E  E  E  Q       Q    Q    Q    E     E  E  E  E  E  Q       Q    Q    Q    E   
----------------------|--0-----------------|----------------------|--0-----------------|
-----------------1----|--0----3----1----1--|--3--------3-----3----|--1----3----1----1--|
--0--------0----------|--0-----------------|--------------0-------|--2--------------0--|
--------0-----0-------|--------------------|--------3-------------|--3-----------------|
----------------------|--------------------|-----3----------------|--------------------|
-----3----------------|--0--------------1--|----------------------|-----------------3--|


                                                                 [Pre-Chorus 2]
                                                                  6/8
                         ^                                                          
  E  E  E  E  E  Q       Q    Q    Q    E     E  E  E  Q    Q       Q    Q    Q     
----------------------|--------------------|---------------------|------------0----|
----------------------|------------0----1--|--L-------------0----|--1----1---------|
--0--------0----------|--0----0---------0--|--L------------------|------------2----|
--------0-----0-------|--2-----------------|-----------2---------|-------2---------|
-----------------2----|-----------------3--|--L--3--L------------|--0--------------|
-----3----------------|--0-----------------|---------------------|-----------------|


                                    4/4
                                      ^          ^           ^                     
  Q    Q    Q       Q    Q    Q       Q    E  E  H           Q    Q    Q    E  E   
-----------------|------------3----|--0----L--------------|-----------------0-----|
--3---------1----|--3----1---------|-------------3--------|--1-----------------3--|
-----------------|------------0----|--0----L-----0--------|--0--------------0-----|
------------3----|-------0---------|----------------------|------------2----------|
-------3---------|-----------------|--3----L--------------|-------3---------------|
--1--------------|--3--------------|-------------3--------|--0--------------------|


                                                  ^                     
  Q    E  E  Q    E  E     Q    Q    Q    Q       H        Q    E   E   
------------------------|----------------------|--0--------L-----------|
-------------1----0--1--|-----------------1----|--1--------L----1h--3--|
----------2-------------|------------0---------|-----------------------|
--0----L-----0----------|-------2--------------|-----------------------|
------------------------|--3-------------------|-----------------------|
------------------------|----------------------|-----------------------|


 [Chorus 2]
 
  Q    Q    Q    E  E     Q    Q    Q    E  E     E  E  Q    Q    E  E   
--3---------0----------|-----------------------|---------------------0--|
-----------------3--1--|-----------------1--1--|--3--1------------3-----|
------------2----------|-------2---------------|-------------0----------|
-------2---------------|--0---------0----------|--------0---------------|
--0--------------------|-----------------------|------------------------|
-----------------------|-----------------------|--3---------------------|


  Q    Q    Q    E   E     Q    Q    Q    E  E     Q    Q    Q    E  E   
------------------------|--3---------0----------|-----------------------|
-----------------1h--3--|-----------------3--1--|-----------------1--1--|
------------0-----------|------------2----------|-------2---------------|
-------2----------------|-------2---------------|--0---------0----------|
--3---------3-----------|--0--------------------|-----------------------|
------------------------|-----------------------|-----------------------|


  E  E  Q    Q    E  E     Q    Q    Q    E   E     Q    Q    Q    E  E   
------------------------|------------------------|--3---------0----------|
--3--1------------0--1--|-----------------1h--3--|-----------------3--1--|
-------------0----------|------------0-----------|------------2----------|
--------0---------------|-------2----------------|-------2---------------|
------------------------|--3---------3-----------|--0--------------------|
--3---------------------|------------------------|-----------------------|


                                                             ^         
  Q    Q    Q    E  E     E  E  Q    Q    E  E     Q    Q    H         
-----------------------|---------------------0--|---------------------|
-----------------1--1--|--3--1-------1----3-----|------------3--------|
-------2---------------|-------------0----------|------------0--------|
--0---------0----------|--------0---------------|-------2-------------|
-----------------------|------------------------|--3------------------|
-----------------------|--3---------------------|---------------------|


  ^                      ^                                ^            ^                 
  Q    Q    Q    Q       Q    Q    Q    Q       Q    Q    Q    Q       W                 
----------------------|----------------------|----------------------|-------------------|
--1--------------1----|-------0----1----1----|------------0----1----|--1----------------|
--2--------------2----|--0---------0---------|------------0---------|--0----------------|
------------3---------|--0----0---------0----|-------2--------------|--2----------------|
-------3--------------|----------------------|--3-------------------|-------------------|
--1-------------------|--3-------------------|----------------------|-------------------|


 [Interlude]
 
  E  E  E   E  Q    E  E     E  E   E  E  Q    E  E     E  E  E  E  E  E  E  E   
--------------------------|--------------------------|--------------------------|
-----0--2p--0-------------|--------------------------|--------------------------|
---------------2----0-----|--------------------------|--------------------------|
-----------------------2--|-----0h--2--2--L-------0--|-----2--L--0--L--------0--|
--0-----------------------|--3-----------------3-----|-----------------3--L-----|
--------------------------|--------------------------|--3-----------------------|


  ^
  Q    Q    Q    Q       E  E  E   E  Q    E  E     E  E  E  E  Q    E  E   
-----------------0----|--------------------------|-------------------------|
------------3---------|-----0--2p--0-------------|----------------------1--|
--0-------------------|--2------------2----------|-----0--L--2--L----2-----|
-------2--------------|--------------------2--2--|-------------------------|
----------------------|--0-----------------------|--3----------------------|
--0-------------------|--------------------------|-------------------------|


  E  E  E  E  E  E  E  E     E  S S E  E  S S S S S S S S    E  E  E   E  E  S S  E  E   
--------------------------|--0--L-------------------------|--------------------------0--|
-----0--L--------0--L-----|--1----3-L--1--L-3-L-0-L-3-----|-----0--2p--0-------0h-3-----|
-----------2--L--------2--|---------------------------0---|--2------------2--L----------|
--------------------------|-----------------------------0-|---------------2--L----------|
--------------------------|-------------------------------|--0--------------------------|
--3-----------------------|--0----------------------------|-----------------------------|


                                                       ^                      
  E  E  E  E  Q    E  E     E  E  E  E  E  E  E  E     Q    Q    E  E  E  E   
-----0--0--0-------------|-----0--L-----------------|--3----0----------------|
-------------------1--3--|-----------3-----1--L--3--|--0---------------------|
-------------------------|--------------------------|------------------0-----|
--------------2----------|--------------0-----------|---------------2-----2--|
--3----------------------|--------------------------|------------2-----------|
-------------------------|--3-----------------------|--0---------------------|


  E  E  E   E  Q    E  E     E  E  E  E  E  E   E  E     E  E  E  E  E  E  E  E   
-----------------------0--|-----0--0--0---------------|-----0--L-----------------|
-----0--2p--0-------3-----|-----------------1h--3--3--|-----------3-----1--L--1--|
--2------------2----------|---------------------------|--------------------------|
---------------2----------|--------------2------------|--------------0-----------|
--0-----------------------|--3------------------------|--------------------------|
--------------------------|---------------------------|--3-----------------------|


                                                            ^         
  Q    Q    Q    E  E     H        Q    Q       Q    E   E  H         
--------------------0--|----------------3----|-----------------------|
--3-----------------0--|---------------------|-------1p--0--1--------|
--0---------0----2-----|---------------------|-----------------------|
-------2---------------|---------------------|-----------------------|
-----------------------|---------------------|-----------------------|
--0--------------------|--0--------L---------|--1-----------1--------|


  ^                                                                      
  E  E  E  E  H           Q    Q    Q    E  E     Q    Q    Q    E   E   
--3-----0--------------|-----------------------|------------------------|
-----3-----1--L--------|--1-----------------1--|--3--------------1h--3--|
-----------------------|-----------------0-----|-----------------0------|
--3--------------------|------------3----------|------------0-----------|
-----------------------|-------3---------------|-------2----------------|
-----------------------|--1---------1----------|--3---------3-----------|


 [Final Chorus]

  Q    E  E  Q    E  E     Q    Q    Q    E  E     E  E  Q    Q    E  E   
--3-------3--0----------|-----------------------|---------------------0--|
------------------3--1--|-----------------1--1--|--3--1------------3-----|
-------------2----------|-------2---------------|-------------0----------|
-------2----------------|--0---------0----------|--------0---------------|
--0---------------------|-----------------------|------------------------|
------------------------|-----------------------|--3---------------------|


  Q    Q    Q    E   E     Q    E  E  Q    E  E     Q    Q    Q    E  E   
------------------------|--3-------3--0----------|-----------------------|
-----------------1h--3--|------------------3--1--|-----------------1--1--|
------------0-----------|-------------2----------|-------2---------------|
-------2----------------|-------2----------------|--0---------0----------|
--3---------3-----------|--0---------------------|-----------------------|
------------------------|------------------------|-----------------------|


  E  E  Q    Q    E  E     Q    Q    Q    E   E     Q    Q    Q    E  E   
------------------------|------------------------|--3---------0----------|
--3--1------------0--1--|-----------------1h--3--|-----------------3--1--|
-------------0----------|------------0-----------|------------2----------|
--------0---------------|-------2----------------|-------2---------------|
------------------------|--3---------3-----------|--0--------------------|
--3---------------------|------------------------|-----------------------|


                                                             ^         
  Q    Q    Q    E  E     E  E  Q    Q    E  E     Q    Q    H         
-----------------------|---------------------0--|---------------------|
-----------------1--1--|--3--1-------1----3-----|------------3--------|
-------2---------------|-------------0----------|------------0--------|
--0---------0----------|--------0---------------|-------2-------------|
-----------------------|------------------------|--3------------------|
-----------------------|--3---------------------|---------------------|


  ^                      ^                           ^               
  Q    Q    Q    Q       Q    Q    Q    Q       Q    Q    Q    Q     
----------------------|----------------------|----------------------|
--1--------------1----|------------0----1----|-------1----0----1----|
--2--------------2----|--0---------0---------|------------0---------|
------------3---------|--0----0---------0----|-------2--------------|
-------3--------------|----------------------|--3-------------------|
--1-------------------|--3-------------------|----------------------|


            ^                                                            
  Q    Q    Q    E   E     Q    Q    Q    E  E     Q    Q    Q    E  E   
------------------------|--3---------0----------|-----------------------|
------------0----1h--3--|-----------------3--1--|-----------------1--1--|
------------0-----------|------------2----------|-------2---------------|
-------2----------------|-------2---------------|--0---------0----------|
--3---------------------|--0--------------------|-----------------------|
------------------------|-----------------------|-----------------------|


  E  E  Q    Q    E  E     Q    Q    Q    E   E     Q    Q    Q    E  E   
---------------------0--|------------------------|--3---------0----------|
--3--1------------3-----|-----------------1h--3--|-----------------3--1--|
-------------0----------|------------0-----------|------------2----------|
--------0---------------|-------2----------------|-------2---------------|
------------------------|--3---------3-----------|--0--------------------|
--3---------------------|------------------------|-----------------------|


  Q    Q    Q    E  E     E  E  Q    Q    E  E     Q    Q    Q    E   E   
-----------------------|------------------------|------------------------|
-----------------1--1--|--3--1------------0--1--|-----------------1h--3--|
-------2---------------|-------------0----------|------------0-----------|
--0---------0----------|--------0---------------|-------2----------------|
-----------------------|------------------------|--3---------3-----------|
-----------------------|--3---------------------|------------------------|


  Q    Q    Q    E  E     Q    Q    Q    E  E     E  E  Q    Q    E  E   
--3---------0----------|-----------------------|---------------------0--|
-----------------3--1--|-----------------1--1--|--3--1-------1----3-----|
------------2----------|-------2---------------|-------------0----------|
-------2---------------|--0---------0----------|--------0---------------|
--0--------------------|-----------------------|------------------------|
-----------------------|-----------------------|--3---------------------|


            ^           ^                      ^                    
  Q    Q    H           Q    Q    Q    Q       Q    Q    Q    Q     
---------------------|----------------------|----------------------|
------------3--------|--1--------------1----|-------0----1----1----|
------------0--------|--2--------------2----|--0---------0---------|
-------2-------------|------------3---------|--0----0---------0----|
--3------------------|-------3--------------|----------------------|
---------------------|--1-------------------|--3-------------------|


                                              [Outro]
											   7/8
       ^                           ^              ^                  
  Q    Q    Q    Q       Q    Q    Q    Q         Q    Q    Q    E   
----------------------|----------------------||---0-----------------|
-------1----0----1----|------------0----1----||---1----3----1-------|
------------0---------|------------0---------||*--2-----------------|
-------2--------------|-------2--------------||*--3-----------------|
--3-------------------|--3-------------------||---------------------|
----------------------|----------------------||------------------3--|


                          ^                                            ^                  
  E  E  E  E   E  Q       Q    Q    Q    E     E  E  E  E   E  Q       Q    Q    Q    E   
-----------------------|--------------------|-----------------------|--0-----------------|
-----------3p--1--0----|--3----1------------|-----------3p--1--1----|--1----3----1-------|
--------0--------------|--0---------0-------|--------0--------------|--2-----------------|
-----0-----------------|--2-----------------|-----------------------|--3-----------------|
-----------------------|--------------------|-----3-----------------|--------------------|
--L--------------------|--0--------------1--|--L--------------------|-----------------3--|


                        /Ending 1
                          ^                                              
  E  E  E  E   E  Q       Q    Q    Q    E     E  E  E  E   E  E   E     
-----------------------|--3-----------------|--------------------------||
-----------3p--1--0----|--0----1---------1--|--L--------3p--1--0h--1---||
--------0--------------|--0---------0-------|--------0----------------*||
-----0-----------------|--------------------|-------------------------*||
-----------------------|-----------------3--|--L--3--------------------||
--L--------------------|--0-----------------|--------------------------||


 /Ending 2
 rall.----------->95bpm
  ^                ^                       
  Q    Q    Q      E     Q.     H          
--3-------------------|------------------||
--0----1---------3g5--|--L------L--------||
--0---------0---------|------------------||
----------------------|------------------||
-------------------3--|--L------L--------||
--0-------------------|------------------||




Duration Legend
---------------
W - whole
H - half
Q - quarter
E - 8th
S - 16th
T - 32nd
X - 64th
. - note dotted
|-n-|  - n-tuplets


Tablature Legend
----------------
L - tied note
x - dead note
g - grace note
(n) - ghost note
> - accentuded note
NH - natural harmonic
AH - artificial harmonic
TH - tapped harmonic
SH - semi harmonic
PH - pitch harmonic
h - hammer on
p - pull off
b - bend
br - bendRelease
pb - preBend
pbr - preBendRelease
brb - bendReleaseBend
\n/ - tremolo bar dip
\n - tremolo bar dive
-/n - tremolo bar Release up
/n\ - tremolo bar inverted dip
/n - tremolo bar return
-\n - tremolo bar Release down
S - shift slide
s - legato slide
/ -  slide into from below or out of upwards
\ -  slide into from above or out of downwards
~ - vibrato
W - wide vibrato
tr - trill
TP - tremolo picking
T - tapping
S - slap
P - pop
< - fade in
^ - brush up
v - brush down
Login or Register to remove this ad.

2 comments on Song for Friends

Great arrangement, but I have

5

Great arrangement, but I have a one correction. The chord in the first bar of the interlude part should be B and not Bm, as in

  E  E  E   E  Q    E  E    
--------------------------|
-----0--2p--0-------------|
---------------2----------|
--------------------2--2--|
--0-----------------------|
--------------------------|

(The melody was also bit off)

Blinded by the feels...

Holy crap you're right 0_0! Thanks for pointing that out. Not sure how I missed it. Must be because the song was using the A-minor shape so much. That or maybe I was just crying too much from listening to the song repeatedly lol. I'll fix it and re-submit with corrections soon. Thanks again! :)