Little Busters! ~TV Animation~ (Little Busters!) Guitar Tab

Submitted: Oct 05, 2016 by CpxAzn (Last updated: Oct 19, 2016)

0
Download | Listen
Game: Little Busters!
Composer(s): Jun Maeda, PMMK, Manack, Shinji Orito, Magome Togoshi
Style: Alternate picking

AutoScroll: Slow | Medium | Fast

Check gp5 for lead guitar

Little Busters! ~TV Animation~ 
Rita/Maeda Jun
Tabbed by CpxAzn
10/5/2016

Rhythm Guitar

     S S T  T S S S S S S S S S S S S S    S S T  T S S S S S  S S S S S S S S  
E||-------------------------------------|--------------------------------------|
B||-------------------------------------|--------------------------------------|
G||-------------------------------------|--------------------------------------|
D||------4s-6---4-------2-----1---2---4-|------4s-6-4------------------------4-|
A||--0-0------0---0-0-0---0-0---0---0---|--4-4--------4-4-4-6s-7-6-4-4-4-6-7---|
E||-------------------------------------|--------------------------------------|


  S S T  T S S S S S S S S S S S S S    S S T  T S S S S E  S S T  T S E.   
-------------------------------------|-------------------------------------|
-------------------------------------|-------------------------------------|
-------------------------------------|-------------------------------------|
------4s-6---4-------2-----1---2---4-|------4s-6-4-------7--6--------------|
--0-0------0---0-0-0---0-0---0---0---|------------------------9------------|
-------------------------------------|--0-0--------0-0-0--------7s-9---7---|


  S S  S  S S S S S S  S S S S  S S S    S S  S  S S S S S S S S S S E.   
--------------------------------------|----------------------------------|
----5p-4p-0---------------------------|----5p-4p-0-----------7-7-5---4---|
--------------------------------------|----------------------4-4-4---4---|
--------------------2s-4-----4s-6-----|----------------------------------|
--0---------0-0-0-0------0-0------2-2-|--4---------4-4-4-4---------------|
--------------------------------------|----------------------------------|


  S S  S  S S S S S S  S S S S  S S S    T  S. S E  S S  E  S S E  S E   
--------------------------------------|---------------------------------|
----5p-4p-0---------------------------|---------------------------------|
--------------------------------------|---------------------------------|
--------------------2s-4-----4s-6-----|--2s-4----2----2s-6--------------|
--0---------0-0-0-0------0-0------2-2-|-------------------------2----2--|
--------------------------------------|--------0----0-------0-0-0--0-0--|


  S S S S S S S S S S S S S S E     S S S S S S S S S S S S S E.   
---------------------------------|--------------------------------|
------5---4-------5-----4--------|------5---4-------5-----4-------|
------4---4-------4-----4-----4--|------4---4-------4-----4---4---|
------------------------------4--|----------------------------4---|
--0-0---0---0-0-0---0-0---0-0----|--4-4---4---4-4-4---4-4---4-----|
---------------------------------|--------------------------------|


  S S S S S S S S S S S S S S E     S S S S S S S S S S S S S S E   
---------------------------------|---------------------------------|
------5---4-------5-----4--------|------5---4----------------------|
------4---4-------4-----4-----4--|------4---4----------------------|
------------------------------4--|------------------4-----4-----4--|
--0-0---0---0-0-0---0-0---0-0----|------------------2-2-2-2-2-2-2--|
---------------------------------|--0-0---0---0-0-0----------------|


  S S S S S S S S  S S S S  S S S S    S S S S S S S S  S S  S S  S S   E   
------------------------------------|--------------------------------------|
------------------------------------|--------------------------------------|
----------------1s-2-----2s-4-------|----------------4s-6-6s-8-8s-9-9s-11--|
--2---4---2-2-------------------2-4-|--2---4---2-2-------------------------|
--0---2---0-0--------0-0------0-----|--0---2---0-0---2s-4-4s-6-6s-7-7s--9--|
------------------------------------|--------------------------------------|


  S S S E  E.  S S Q.        S S E  S S E  S S S Q    S  
--------------------------|-----------------------------|
--------5----------5------|-----------------------------|
------6----6-----6--------|----------------------6------|
----6---------------------|------2------2----6---6------|
--4------------0----------|------0--2-2-0--4---4-4------|
--------------------------|--2-2------------------------|


  E  S S S S S E  S S T T    E  S S S S S E  E  S    S S E  E  S S S S S S  
--------------------------|-----------------------|------------------------|
--------------------------|-----------------------|------------------------|
--------------------------|-----------------------|------------------------|
--4------4-----6--4-3-----|--6------6-----9--8--6-|--L------8--------3-4-6-|
--4------4------------4-4-|--4--4-4-4-4-4---------|----9-8--6--6-6-6-------|
--2--2-2---2-2------------|-----------------------|------------------------|


  S S S Q    S E  S S    S S S E  S  S S   S  E.     E  S S S S S E  S S T T  
----------------------|---------------------------|--------------------------|
----6-7---------------|---------------------------|--------------------------|
--------6-------------|-----------6s-8-8s-10-10---|--------------------------|
--L-------------------|--------6------------------|--4------4-----6--4-3-----|
---------------9------|--6-----4--4s-6-6s--8--8---|--4------4------------4-4-|
---------------7--7-7-|--4-4-4--------------------|--2--2-2---2-2------------|


  E  S S S S S E  E  S    S S E  E  S S S S S S    S S S Q    S E  S S  
-----------------------|------------------------|----------------------|
-----------------------|------------------------|----6-7---------------|
-----------------------|------------------------|--------6-------------|
--6------6-----9--8--6-|--L------8--------3-4-6-|--L-------------------|
--4--4-4-4-4-4---------|----9-8--6--6-6-6-------|---------------9------|
-----------------------|------------------------|---------------7--7-7-|


  S S S E  S  S S   S  E.     S T T S T T S T T S T T S T T S T T  
---------------------------|--------------------------------------|
---------------------------|--------------------------------------|
-----------6s-8-8s-10-10---|--------------------------------------|
--------6------------------|--7-----7-----7-----7-----7-----7-----|
--6-----4--4s-6-6s--8--8---|--5-5-5-5-5-5-5-5-5-5-5-5-5-5-5-5-5-5-|
--4-4-4--------------------|--------------------------------------|


  S  S S   S S T T S T T S T T S T T    S T T S T T S   S  S   S  
-------------------------------------|---------------------------|
-------------------------------------|---------------------------|
--7s-9-9s-11-------------------------|--------------9s-11-11s-13-|
-------------9-----9-----9-----9-----|--9-----9------------------|
--5s-7-7s--9-7-7-7-7-7-7-7-7-7-7-7-7-|--7-7-7-7-7-7-7s--9--9s-11-|
-------------------------------------|---------------------------|


  S S  S  S S S S S S  S S S S  S S S    S S  S  S S S S S S S S S S E.   
--------------------------------------|----------------------------------|
----5p-4p-0---------------------------|----5p-4p-0-----------7-7-5---4---|
--------------------------------------|----------------------4-4-4---4---|
--------------------2s-4-----4s-6-----|----------------------------------|
--0---------0-0-0-0------0-0------2-2-|--4---------4-4-4-4---------------|
--------------------------------------|----------------------------------|


  S S  S  S S S S S S  S S S S  S S S    E  S E  S S  E  S S E  S E   
--------------------------------------|------------------------------|
----5p-4p-0---------------------------|------------------------------|
--------------------------------------|------------------------------|
--------------------2s-4-----4s-6-----|--4----2----2s-6--------------|
--0---------0-0-0-0------0-0------2-2-|----------------------2----2--|
--------------------------------------|-----0----0-------0-0-0--0-0--|


  S S S S S S S S S S S S S S E     S S S S S S S S S S S S S E.   
---------------------------------|--------------------------------|
------5---4-------5-----4--------|------5---4-------5-----4-------|
------4---4-------4-----4-----4--|------4---4-------4-----4---4---|
------------------------------4--|----------------------------4---|
--0-0---0---0-0-0---0-0---0-0----|--4-4---4---4-4-4---4-4---4-----|
---------------------------------|--------------------------------|


  S S S S S S S S S S S S S S E     S S S S S S S S S S S S S S E   
---------------------------------|---------------------------------|
------5---4-------5-----4--------|------5---4----------------------|
------4---4-------4-----4-----4--|------4---4----------------------|
------------------------------4--|------------------4-----4-----4--|
--0-0---0---0-0-0---0-0---0-0----|------------------2-2-2-2-2-2-2--|
---------------------------------|--0-0---0---0-0-0----------------|


  S S S S S S S S  S S S S  S S S S    S S S S S S S S  S S  S S  S S   E   
------------------------------------|--------------------------------------|
------------------------------------|--------------------------------------|
----------------1s-2-----2s-4-------|----------------4s-6-6s-8-8s-9-9s-11--|
--2---4---2-2-------------------2-4-|--2---4---2-2-------------------------|
--0---2---0-0--------0-0------0-----|--0---2---0-0---2s-4-4s-6-6s-7-7s--9--|
------------------------------------|--------------------------------------|


  S S S E  E.  S S Q.        S S E  S S E  S S S Q    S  
--------------------------|-----------------------------|
--------5----------5------|-----------------------------|
------6----6-----6--------|----------------------6------|
----6---------------------|------2------2----6---6------|
--4------------0----------|------0--2-2-0--4---4-4------|
--------------------------|--2-2------------------------|


  E  S S S S S E  S S T T    E  S S S S S E  E  S    S S E  E  S S S S S S  
--------------------------|-----------------------|------------------------|
--------------------------|-----------------------|------------------------|
--------------------------|-----------------------|------------------------|
--4------4-----6--4-3-----|--6------6-----9--8--6-|--L------8--------3-4-6-|
--4------4------------4-4-|--4--4-4-4-4-4---------|----9-8--6--6-6-6-------|
--2--2-2---2-2------------|-----------------------|------------------------|


  S S S Q    S E  S S    S S S E  S  S S   S  E.     E  S S S S S E  S S T T  
----------------------|---------------------------|--------------------------|
----6-7---------------|---------------------------|--------------------------|
--------6-------------|-----------6s-8-8s-10-10---|--------------------------|
--L-------------------|--------6------------------|--4------4-----6--4-3-----|
---------------9------|--6-----4--4s-6-6s--8--8---|--4------4------------4-4-|
---------------7--7-7-|--4-4-4--------------------|--2--2-2---2-2------------|


  E  S S S S S E  E  S    S S E  E  S S S S S S    S S S Q    S E  S S  
-----------------------|------------------------|----------------------|
-----------------------|------------------------|----6-7---------------|
-----------------------|------------------------|--------6-------------|
--6------6-----9--8--6-|--L------8--------3-4-6-|--L-------------------|
--4--4-4-4-4-4---------|----9-8--6--6-6-6-------|---------------9------|
-----------------------|------------------------|---------------7--7-7-|


  S S S E  S  S S   S  E.     S T T S T T S T T S T T S T T S T T  
---------------------------|--------------------------------------|
---------------------------|--------------------------------------|
-----------6s-8-8s-10-10---|--------------------------------------|
--------6------------------|--7-----7-----7-----7-----7-----7-----|
--6-----4--4s-6-6s--8--8---|--5-5-5-5-5-5-5-5-5-5-5-5-5-5-5-5-5-5-|
--4-4-4--------------------|--------------------------------------|


  S  S S   S S T T S T T S T T S T T    S T T S T T S   S  S   S            
-------------------------------------|---------------------------|----|----|
-------------------------------------|---------------------------|----|----|
--7s-9-9s-11-------------------------|--------------9s-11-11s-13-|----|----|
-------------9-----9-----9-----9-----|--9-----9------------------|----|----|
--5s-7-7s--9-7-7-7-7-7-7-7-7-7-7-7-7-|--7-7-7-7-7-7-7s--9--9s-11-|----|----|
-------------------------------------|---------------------------|----|----|


                                S S S S S S S S S S S S S S S S  
----|----|----|----|----|----|----------------------------------|
----|----|----|----|----|----|----------------------------------|
----|----|----|----|----|----|----------------------------------|
----|----|----|----|----|----|------6-----6---------2-----2-----|
----|----|----|----|----|----|--4-4-4-4-4-4-4-4-0-0-0-0-0-0-0-0-|
----|----|----|----|----|----|----------------------------------|


  S S S S S S S S S S S S S E.     S S S E  E.  S S S E  E.   
----------------------------7---|----------------------------|
------------------------4-5-----|--------7------------9------|
----------------------4---------|------7----7-------9----9---|
------4-----4-------4-----------|----7------------9----------|
--2-2-2-2-2-2-2-2-4-------------|--5------------7------------|
--------------------------------|----------------------------|


   W                                                         
--------------------|-------------------|-------------------|
--------------------|-------------------|-------------------|
--------------------|-------------------|-------------------|
--11----------------|-------------------|-------------------|
---9----------------|-------------------|-------------------|
--------------------|-------------------|-------------------|


                             E  S S S S S E  S S T T    E  S S S S S E  E  S  
-------------------|------|--------------------------|-----------------------|
-------------------|------|--------------------------|-----------------------|
-------------------|------|--------------------------|-----------------------|
-------------------|------|--4------4-----6--4-3-----|--6------6-----9--8--6-|
-------------------|------|--4------4------------4-4-|--4--4-4-4-4-4---------|
-------------------|------|--2--2-2---2-2------------|-----------------------|


  S S E  E  S S S S S S    S S S Q    S E  S S    S S S E  S  S S   S  E.   
------------------------|----------------------|---------------------------|
------------------------|----6-7---------------|---------------------------|
------------------------|--------6-------------|-----------6s-8-8s-10-10---|
--L------8--------3-4-6-|--L-------------------|--------6------------------|
----9-8--6--6-6-6-------|---------------9------|--6-----4--4s-6-6s--8--8---|
------------------------|---------------7--7-7-|--4-4-4--------------------|


  E  S S S S S E  S S T T    E  S S S S S E  E  S    S S E  E  S S S S S S  
--------------------------|-----------------------|------------------------|
--------------------------|-----------------------|------------------------|
--------------------------|-----------------------|------------------------|
--4------4-----6--4-3-----|--6------6-----9--8--6-|--L------8--------3-4-6-|
--4------4------------4-4-|--4--4-4-4-4-4---------|----9-8--6--6-6-6-------|
--2--2-2---2-2------------|-----------------------|------------------------|


  S S S Q    S E  S S    S S S E  S  S S   S  E.   
----------------------|---------------------------|
----6-7---------------|---------------------------|
--------6-------------|-----------6s-8-8s-10-10---|
--L-------------------|--------6------------------|
---------------9------|--6-----4--4s-6-6s--8--8---|
---------------7--7-7-|--4-4-4--------------------|


  S T T S T T S T T S T T S T T S T T    S  S S   S S T T S T T S T T S T T  
--------------------------------------|-------------------------------------|
--------------------------------------|-------------------------------------|
--------------------------------------|--7s-9-9s-11-------------------------|
--7-----7-----7-----7-----7-----7-----|-------------9-----9-----9-----9-----|
--5-5-5-5-5-5-5-5-5-5-5-5-5-5-5-5-5-5-|--5s-7-7s--9-7-7-7-7-7-7-7-7-7-7-7-7-|
--------------------------------------|-------------------------------------|


  S T T S T T S   S  S   S    S T T S T T S T T S T T S T T S T T  
---------------------------|--------------------------------------|
---------------------------|--------------------------------------|
--------------9s-11-11s-13-|--------------------------------------|
--9-----9------------------|--7-----7-----7-----7-----7-----7-----|
--7-7-7-7-7-7-7s--9--9s-11-|--5-5-5-5-5-5-5-5-5-5-5-5-5-5-5-5-5-5-|
---------------------------|--------------------------------------|


  S T T S T T S S S S S S S S Q       S S T  T S S S S S S S S S S S S S  
-----------------------------------|-------------------------------------|
-----------------------------------|-------------------------------------|
-----------------------------------|-------------------------------------|
--7-----7--------------------------|------4s-6---4-------2-----1---2---4-|
--5-5-5-5-5-5-2-2-2-2-2-2-2-2-2----|--0-0------0---0-0-0---0-0---0---0---|
--------------0-0-0-0-0-0-0-0-0----|-------------------------------------|


  S S T  T S S S S S  S S S S S S S S    S S T  T S S S S S S S S S S S S S  
--------------------------------------|-------------------------------------|
--------------------------------------|-------------------------------------|
--------------------------------------|-------------------------------------|
------4s-6-4------------------------4-|------4s-6---4-------2-----1---2---4-|
--4-4--------4-4-4-6s-7-6-4-4-4-6-7---|--0-0------0---0-0-0---0-0---0---0---|
--------------------------------------|-------------------------------------|


  S S T  T S S S S E  S S T  T S E.     S S  S  S S S S S S  S S S S  S S S  
-------------------------------------|--------------------------------------|
-------------------------------------|----5p-4p-0---------------------------|
-------------------------------------|--------------------------------------|
------4s-6-4-------7--6--------------|--------------------2s-4-----4s-6-----|
------------------------9------------|--0---------0-0-0-0------0-0------2-2-|
--0-0--------0-0-0--------7s-9---7---|--------------------------------------|


  S S  S  S S S S S S S S S S E.     S S  S  S S S S S S  S S S S  S S S  
----------------------------------|--------------------------------------|
----5p-4p-0-----------7-7-5---4---|----5p-4p-0---------------------------|
----------------------4-4-4---4---|--------------------------------------|
----------------------------------|--------------------2s-4-----4s-6-----|
--4---------4-4-4-4---------------|--0---------0-0-0-0------0-0------2-2-|
----------------------------------|--------------------------------------|


  E  S E  S Q.     S S S S    W                  
---------------------------|-------------------||
---------------------------|-------------------||
---------------------------|-------------------||
---------------------------|--7----------------||
--2----2----2------4---6---|--7----------------||
--0--0-0--0-0------2---4---|--5----------------||




Duration Legend
---------------
W - whole
H - half
Q - quarter
E - 8th
S - 16th
T - 32nd
X - 64th
. - note dotted
|-n-|  - n-tuplets


Tablature Legend
----------------
L - tied note
x - dead note
g - grace note
(n) - ghost note
> - accentuded note
NH - natural harmonic
AH - artificial harmonic
TH - tapped harmonic
SH - semi harmonic
PH - pitch harmonic
h - hammer on
p - pull off
b - bend
br - bendRelease
pb - preBend
pbr - preBendRelease
brb - bendReleaseBend
\n/ - tremolo bar dip
\n - tremolo bar dive
-/n - tremolo bar Release up
/n\ - tremolo bar inverted dip
/n - tremolo bar return
-\n - tremolo bar Release down
S - shift slide
s - legato slide
/ -  slide into from below or out of upwards
\ -  slide into from above or out of downwards
~ - vibrato
W - wide vibrato
tr - trill
TP - tremolo picking
T - tapping
S - slap
P - pop
< - fade in
^ - brush up
v - brush down
Login or Register to remove this ad.

2 comments on Little Busters! ~TV Animation~

Can you make a recording of

Can you make a recording of yourself playing this? It sounds really odd for me. One of my favorite songs that i've listened to 100s of times (well, the original version anyway), so idk what's going on lol. would be very helpful to hear the tab itself played

Kougeru said Can you make a

Kougeru said
Can you make a recording of yourself playing this? It sounds really odd for me. One of my favorite songs that i've listened to 100s of times (well, the original version anyway), so idk what's going on lol. would be very helpful to hear the tab itself played

Any particular parts that sound weird? Some of the slides I didn't take the time to completely match the timing.